Artists by letter: A B C D E F G H I J K L M N O P Q R S T U V W X Y Z 0-9

 
Giving In
-------------------------------------------------------------------------------
                       GIVING IN - Days Of The New
-------------------------------------------------------------------------------
Tabbed by: Dalibor Lekic
E-mail: lekicdaliborr@yahoo.com

Tuning: C G C G C G


Intro:

G |-------------------8p7-8p7\5-7~---8p7-8p7\5-7~--7p5-7p5\3-0---------|
C |------8p7-8p7\5-7---------------------------------------------------|
G |--------------------------------------------------------------------|
C |----------------------------------------------------------------0---|
G |-------------------------------------------------------------3b-----|
C |---0----------------------------------------------------------------|

G |----------------8p7-8p7\5-7~---8p7-8p7\5-7~--7p5-7p5\3-0-----------|
C |---8p7-8p7\5-7-----------------------------------------------------|
G |-------------------------------------------------------------------|
C |---------------------------------------------------------------0---|
G |----------------------------------------------------------0-3b-----|
C |-------------------------------------------------------------------|

G |---7p5-6p5\3-5--7p5-6p5\3-0-----------|
C |--------------------------------------|
G |--------------------------------------|   x4
C |----------------------------------0---|
G |-----------------------------0-3b-----|
C |--------------------------------------|


Verse: x2

G |----------------------------------------------------------------------------|
C |--------------------------------------0-------------------------------------|
G |--------0------0------0----0--------0---0-----0-----0-----0-----------------|
C |------0------0------0-------------0---------0-----0-----0-----0-------------|
G |---12-----12-----12-----10---9-10---------6-----6-----6-----5---0-3-5-6-5---|
C |----------------------------------------------------------------------------|

G |--------------------------------------------------------------------------|
C |---------------0----------------------0-----------------------------------|
G |--------0-------------0----0--------0---0-----0---------0---0-------------|
C |------0------0------0-------------0---------0---------0-------------1p0---|
G |---12-----15-----10-----10---9-10---------6-----6/9-5-----5---0-3-5-------|
C |--------------------------------------------------------------------------|


Pre-Chorus:

G |---------------------------------------------------------------|
C |---------------------------------------------------------------|
G |---------------------------------0---------------0-------0-----|
C |---------0-------0-------0---------------0-----------------0---|
G |-----2-3-5---2-3-5---2-3-5---2-3-----2-3-5---2-3-----2-3---5---|
C |---0-------0-------0-------0-------0-------0-------0-----------|


Chorus:

G |---0-0-0-0-0--0-0-0--0--0-0-0-0-0---|
C |---4-5-7-7-7--7-7-7--10-5-4-4-4-4---|
G |---0-0-0-0-0--0-0-0--0--0-0-0-0-0---|   x2
C |---4-5-7-7-7--7-7-7--10-5-4-4-4-4---|
G |---0-0-0-0-0--0-0-0--0--0-0-0-0-0---|
C |---0-0-0-0-0--0-0-0--0--0-0-0-0-0---|

G |---0-0--0-0-0--0-0-0-0---|
C |---5-5--0-0-0--0-0-0-0---|
G |---0-0--6-6-6--5-5-5-5---|   x2
C |---5-5--0-0-0--0-0-0-0---|
G |---0-0--6-6-6--5-5-5-5---|
C |---0-0--0-0-0--0-0-0-0---|


Verse:

G |---------------------------------------------------------------------------------|
C |-------------------------------------------0-------------------------------------|
G |-------------0------0------0----0--------0---0-----0-----0-----0-----------------|
C |-----------0------0------0-------------0---------0-----0-----0-----0-------------|
G |---0-3--12-----12-----12-----10---9-10---------6-----6-----6-----5---0-3-5-6-5---|
C |---------------------------------------------------------------------------------|

G |--------------------------------------------------------------------------|
C |---------------0----------------------0-----------------------------------|
G |--------0-------------0----0--------0---0-----0---------0---0-------------|
C |------0------0------0-------------0---------0---------0-------------1p0---|
G |---12-----15-----10-----10---9-10---------6-----6/9-5-----5---0-3-5-------|
C |--------------------------------------------------------------------------|


G |----------------------------------------------------------------------------|
C |---------------0----------------------0-------------------------------------|
G |--------0-------------0----0--------0---0-----0-----0-----0---0-------------|
C |------0------0------0-------------0---------0-----0-----0-------------1p0---|
G |---12-----15-----10-----10---9-10---------6-----6-----6-----5---0-3-5-------|
C |----------------------------------------------------------------------------|

G |--------------------------------------------------------------------------|
C |---------------0----------------------0-----------------------------------|
G |--------0-------------0----0--------0---0-----0---------0---0-------------|
C |------0------0------0-------------0---------0---------0-------------1p0---|
G |---12-----15-----10-----10---9-10---------6-----6/9-5-----5---0-3-5-------|
C |--------------------------------------------------------------------------|


Pre-Chorus:

G |---------------------------------------------------------------|
C |---------------------------------------------------------------|
G |---------------------------------0---------------0-------0-----|
C |---------0-------0-------0---------------0-----------------0---|
G |-----2-3-5---2-3-5---2-3-5---2-3-----2-3-5---2-3-----2-3---5---|
C |---0-------0-------0-------0-------0-------0-------0-----------|


Chorus:

G |---0-0-0-0-0--0-0-0--0--0-0-0-0-0---|
C |---4-5-7-7-7--7-7-7--10-5-4-4-4-4---|
G |---0-0-0-0-0--0-0-0--0--0-0-0-0-0---|   x2
C |---4-5-7-7-7--7-7-7--10-5-4-4-4-4---|
G |---0-0-0-0-0--0-0-0--0--0-0-0-0-0---|
C |---0-0-0-0-0--0-0-0--0--0-0-0-0-0---|

G |---0-0--0-0-0--0-0-0-0---|
C |---5-5--0-0-0--0-0-0-0---|
G |---0-0--6-6-6--5-5-5-5---|   x4
C |---5-5--0-0-0--0-0-0-0---|
G |---0-0--6-6-6--5-5-5-5---|
C |---0-0--0-0-0--0-0-0-0---|


Post-Chorus:

G |-------------------8p7-8p7\5-7~---8p7-8p7\5-7~--7p5-7p5\3-0---------|
C |------8p7-8p7\5-7---------------------------------------------------|
G |--------------------------------------------------------------------|
C |----------------------------------------------------------------0---|
G |-------------------------------------------------------------3b-----|
C |---0----------------------------------------------------------------|

G |----------------8p7-8p7\5-7~---8p7-8p7\5-7~--7p5-7p5\3-0-----------|
C |---8p7-8p7\5-7-----------------------------------------------------|
G |-------------------------------------------------------------------|
C |---------------------------------------------------------------0---|
G |----------------------------------------------------------0-3b-----|
C |-------------------------------------------------------------------|

G |---7p5-6p5\3-5--7p5-6p5\3-0-----------|
C |--------------------------------------|
G |--------------------------------------|   x4
C |----------------------------------0---|
G |-----------------------------0-3b-----|
C |--------------------------------------|

G |---0-0-0-0-0--0-0-0-0-0--0-0---|
C |---0-0-0-0-0--0-0-0-0-0--0-0---|
G |---6-6-5-3-5--6-6-5-3-5--0-3---|   x4
C |---0-0-0-0-0--0-0-0-0-0--0-0---|
G |---6-6-5-3-5--6-6-5-3-5--0-3---|
C |---0-0-0-0-0--0-0-0-0-0--0-0---|


Bridge:

G |---------------------------------|
C |--------------0-----0------------|
G |----------0-----0-----0---0------|  x4
C |------------0-----0-----0---0----|
G |---0-3---------------------------|
C |--------0------------------------|

G |---------------------------------|
C |--------------0-----0------------|
G |----------0-----0-----0---0------|  x4
C |---3-5------0-----0-----0---0----|
G |---3-5---------------------------|
C |---3-5--0------------------------|

G |-------0-0-----0-0-0-0-0-0-0-0-0--0----|
C |-------0-0-----0-0-0-0-7-7\5-5/10-10---|
G |-------0-0-----0-0-0-0-0-0-0-0-0--0----|
C |---3-5-0-0-3-5-0-0-0-0-7-7\5-5/10-10---|
G |---3-5-0-0-3-5-0-0-0-0-0-0-0-0-0--0----|
C |---3-5-0-0-3-5-0-0-0-0-0-0-0-0-0--0----|

G |------------------------------------------------------------------------------|
C |------------------------------------------------------------------------------|
G |------------------------------------------------------------------------------|
C |---3-5-0-0-3-5-0-0-0-3-5-0-0-3-5-0-0-15-15--3-5-0-0-3-5-0-0-0-3-5-0-0-3-3-0---|
G |---3-5-0-0-3-5-0-0-0-3-5-0-0-3-5-0-0-15-15--3-5-0-0-3-5-0-0-0-3-5-0-0-3-3-0---|
C |---3-5-0-0-3-5-0-0-0-3-5-0-0-3-5-0-0-15-15--3-5-0-0-3-5-0-0-0-3-5-0-0-3-3-0---|


Outro:

G |-------------------8p7-8p7\5-7~---8p7-8p7\5-7~--7p5-7p5\3-0---------|
C |------8p7-8p7\5-7---------------------------------------------------|
G |--------------------------------------------------------------------|
C |----------------------------------------------------------------0---|
G |-------------------------------------------------------------3b-----|
C |---0----------------------------------------------------------------|

G |---7p5-6p5\3-5--7p5-6p5\3-0-----------|
C |--------------------------------------|
G |--------------------------------------|   x6
C |----------------------------------0---|
G |-----------------------------0-3b-----|
C |--------------------------------------|


************************************

| /   slide up
| \   slide down
| p   pull-off
| ~   vibrato
| b   bend

************************************
 
 
Days Of The New - Giving In :: indexed at Ultimate Guitar.
Giving In tabs @ 911Tabs
People who played Days Of The New - Giving In also played these songs by Days Of The New:
Shelf In The Room Chords, Die Born Tab, The Down Town Tab, Enemy Tab, Touch Peel And Stand Tab, Touch Peel And Stand Tab

Quick tip, so you can enjoy Giving In even more:

YourChords.com Guitar Chords and Tabs Archive is currently indexing over 240'000 songs from 21'000+ different artists. And new chords just keep on coming in, so you will surely never run out of them.

Show us your talent, perform Giving In!

Here you can post a video or audio performance. Tell me more ...
Where can we find your performance? Tell me more ...
Your comment:
Please, log in to post your performance.