Artists by letter: A B C D E F G H I J K L M N O P Q R S T U V W X Y Z 0-9

 
Cant Change Me Acoustic
Can't Change Me
Chris Cornell

Arrangement by Prem Midha

Capo on 3

This isn't identical to Chris Cornell's acoustic version.  It's close, but I play it 
differently.  These are the basic chord shapes, but most of these can be played with open 
notes.  To hear how this version sounds, check out this video of me playing it:

http://www.youtube.com/watch?v=AHwLffrgnoU&fmt=22

E||-----------------|---------------|-------------|-----------------|-------------|
B||-----------------|---------------|-------------|-----------------|-------------|
G||------------0----|--2----0----0--|--0----------|--4----2----0----|--0----------|
D||--2----4----2----|--2----2----4--|--2----------|--2----2----2----|--4----------|
A||--2----2----2----|--2----2----2--|--2----------|--2----2----2----|--2----------|
E||--0----0---------|---------------|--0----------|--0--------------|-------------|

E||-----------------|---------------|-------------|-----------------|-------------|
B||-----------------|---------------|-------------|-----------------|-------------|
G||------------0----|--2----0----0--|--0----------|--4----2----0----|--0----------|
D||--2----4----2----|--2----2----4--|--2----------|--2----2----2----|--4----------|
A||--2----2----2----|--2----2----2--|--2----------|--2----2----2----|--2----------|
E||--0----0---------|---------------|--0----------|--0--------------|-------------|

E||---------------|---------------|---------------|---------------|---------------|
B||---------------|---------------|---------------|---------------|---------------|
G||--0------------|--0------------|--0------------|--0------------|--0------------|
D||--2------------|--2------------|--2------------|--2------------|--2------------|
A||--2------------|--5------------|--4------------|--3------------|--2------------|
E||--0------------|--0------------|--0------------|--0------------|--0------------|

E||---------------|---------------|---------------|---------------|---------------|
B||---------------|---------------|---------------|---------------|---------------|
G||--0------------|--0------------|--0------------|--0------------|--0------------|
D||--4------------|--2------------|--2------------|--2------------|--2------------|
A||--3------------|--4------------|--4------------|--2------------|--5------------|
E||--2------------|--0------------|--0------------|--0------------|--0------------|

E||---------------|---------------|---------------|---------------|---------------|
B||---------------|---------------|---------------|---------------|---------------|
G||--0------------|--0------------|--0------------|--0------------|--0------------|
D||--2------------|--2------------|--2------------|--4------------|--2------------|
A||--4------------|--3------------|--2------------|--3------------|--4------------|
E||--0------------|--0------------|--0------------|--2------------|--0------------|

E||---------------|---------------|---------------|---------------|---------------|
B||---------------|--0------------|--0------------|--0------------|--0------------|
G||--0------------|--0------------|--0------------|--2------------|--2------------|
D||--2------------|--2------------|--2------------|--1------------|--1------------|
A||--4------------|--3------------|--3------------|--2------------|--2------------|
E||--0------------|---------------|---------------|---------------|---------------|

E||--3------------|--3------------|---------------|---------------|---------------|
B||--3------------|--3------------|--5------------|--5------------|--4------------|
G||--4------------|--4------------|--5------------|--5------------|--5------------|
D||--5------------|--5------------|--5------------|--5------------|--5------------|
A||--5------------|--5------------|--3------------|--3------------|--3------------|
E||--3------------|--3------------|---------------|---------------|---------------|

E||---------------|--x----x----x--|--x----x----x--|--3------------|--0------------|
B||--4------------|--x----x----x--|--x----x----x--|--3------------|--0------------|
G||--5------------|--x----x----x--|--x----x----x--|--0------------|--0------------|
D||--5------------|--x----x----x--|--x----x----x--|--0------------|--4------------|
A||--3------------|--x----x----x--|--x----x----x--|---------------|---------------|
E||---------------|--x----x----x--|--x----x----x--|--3------------|--2------------|

E||--0------------|---------------|--3------------|--0------------|--0------------|
B||--0------------|--0------------|--3------------|--0------------|--0------------|
G||--0------------|--0------------|--0------------|--0------------|--0------------|
D||--2------------|--4------------|--0------------|--4------------|--2------------|
A||--4------------|--6------------|---------------|---------------|--4------------|
E||---------------|---------------|--3------------|--2------------|---------------|

E||---------------|--3------------|--0------------|--0------------|---------------|
B||--0------------|--3------------|--0------------|--0------------|--0------------|
G||--0------------|--0------------|--0------------|--0------------|--0------------|
D||--4------------|--0------------|--4------------|--2------------|--4------------|
A||--6------------|---------------|---------------|--4------------|--6------------|
E||---------------|--3------------|--2------------|---------------|---------------|

E||---------------|---------------|---------------|---------------|---------------|
B||--0------------|--0------------|---------------|---------------|--0------------|
G||--2------------|--2------------|--0------------|--0------------|--0------------|
D||--2------------|--1------------|--4------------|--4------------|--2------------|
A||--0------------|--2------------|--3------------|--3------------|--4------------|
E||---------------|---------------|--2------------|--2------------|---------------|

E||---------------|-----------------|---------------|-----------|-----------------|
B||--0------------|-----------------|---------------|-----------|-----------------|
G||--2------------|------------0----|--2----0----0--|--0--------|--4----2----0----|
D||--1------------|--2----4----2----|--2----2----4--|--2--------|--2----2----2----|
A||--2------------|--2----2----2----|--2----2----2--|--2--------|--2----2----2----|
E||---------------|--0----0---------|---------------|--0--------|--0--------------|

E||---------------|---------------|---------------|---------------|---------------|
B||---------------|---------------|---------------|---------------|---------------|
G||--0------------|--0------------|--0------------|--0------------|--0------------|
D||--4------------|--2------------|--2------------|--2------------|--2------------|
A||--2------------|--2------------|--5------------|--4------------|--3------------|
E||---------------|--0------------|--0------------|--0------------|--0------------|

E||---------------|---------------|---------------|---------------|---------------|
B||---------------|---------------|---------------|---------------|---------------|
G||--0------------|--0------------|--0------------|--0------------|--0------------|
D||--2------------|--4------------|--2------------|--2------------|--2------------|
A||--2------------|--3------------|--4------------|--4------------|--2------------|
E||--0------------|--2------------|--0------------|--0------------|--0------------|

E||---------------|---------------|---------------|---------------|---------------|
B||---------------|---------------|---------------|---------------|---------------|
G||--0------------|--0------------|--0------------|--0------------|--0------------|
D||--2------------|--2------------|--2------------|--2------------|--4------------|
A||--5------------|--4------------|--3------------|--2------------|--3------------|
E||--0------------|--0------------|--0------------|--0------------|--2------------|

E||---------------|---------------|---------------|---------------|---------------|
B||---------------|---------------|--0------------|--0------------|--0------------|
G||--0------------|--0------------|--0------------|--0------------|--2------------|
D||--2------------|--2------------|--2------------|--2------------|--1------------|
A||--4------------|--4------------|--3------------|--3------------|--2------------|
E||--0------------|--0------------|---------------|---------------|---------------|

E||---------------|--3------------|--3------------|---------------|---------------|
B||--0------------|--3------------|--3------------|--5------------|--5------------|
G||--2------------|--4------------|--4------------|--5------------|--5------------|
D||--1------------|--5------------|--5------------|--5------------|--5------------|
A||--2------------|--5------------|--5------------|--3------------|--3------------|
E||---------------|--3------------|--3------------|---------------|---------------|

E||---------------|---------------|--x----x----x--|--x----x----x--|--3------------|
B||--4------------|--4------------|--x----x----x--|--x----x----x--|--3------------|
G||--5------------|--5------------|--x----x----x--|--x----x----x--|--0------------|
D||--5------------|--5------------|--x----x----x--|--x----x----x--|--0------------|
A||--3------------|--3------------|--x----x----x--|--x----x----x--|---------------|
E||---------------|---------------|--x----x----x--|--x----x----x--|--3------------|

E||--0------------|--0------------|---------------|--3------------|--0------------|
B||--0------------|--0------------|--0------------|--3------------|--0------------|
G||--0------------|--0------------|--0------------|--0------------|--0------------|
D||--4------------|--2------------|--4------------|--0------------|--4------------|
A||---------------|--4------------|--6------------|---------------|---------------|
E||--2------------|---------------|---------------|--3------------|--2------------|

E||--0------------|---------------|--3------------|--0------------|--0------------|
B||--0------------|--0------------|--3------------|--0------------|--0------------|
G||--0------------|--0------------|--0------------|--0------------|--0------------|
D||--2------------|--4------------|--0------------|--4------------|--2------------|
A||--4------------|--6------------|---------------|---------------|--4------------|
E||---------------|---------------|--3------------|--2------------|---------------|

E||---------------|---------------|---------------|---------------|---------------|
B||--0------------|--0------------|--0------------|---------------|---------------|
G||--0------------|--2------------|--2------------|--0------------|--0------------|
D||--4------------|--2------------|--1------------|--4------------|--4------------|
A||--6------------|--0------------|--2------------|--3------------|--3------------|
E||---------------|---------------|---------------|--2------------|--2------------|

E||---------------|---------------|---------------|---------------|---------------|
B||--0------------|--0------------|--0------------|--0------------|--1------------|
G||--0------------|--0------------|--2------------|--2------------|--0------------|
D||--2------------|--2------------|--1------------|--1------------|--2------------|
A||--4------------|--4------------|--2------------|--2------------|--3------------|
E||---------------|---------------|---------------|---------------|---------------|

E||---------------|---------------|---------------|---------------|---------------|
B||--1------------|---------------|---------------|---------------|---------------|
G||--0------------|--0------------|--0------------|--0------------|--0------------|
D||--2------------|--4------------|--4------------|--2------------|--2------------|
A||--3------------|--3------------|--3------------|--2------------|--2------------|
E||---------------|--2------------|--2------------|--0------------|--0------------|

E||--3------------|--3------------|--3------------|--3------------|--3------------|
B||--3------------|--3------------|--3------------|--3------------|--3------------|
G||--4------------|--4------------|--4------------|--4------------|--4------------|
D||--5------------|--5------------|--3------------|--3------------|--3------------|
A||--5------------|--5------------|--5------------|--5------------|--5------------|
E||--3------------|--3------------|--3------------|--3------------|--3------------|

E||--3------------|---------------|---------------|---------------|---------------|
B||--3------------|---------------|---------------|--5------------|--5------------|
G||--4------------|--0------------|--0------------|--2------------|--2------------|
D||--3------------|--4------------|--4------------|--4------------|--4------------|
A||--5------------|--3------------|--3------------|--2------------|--2------------|
E||--3------------|--2------------|--2------------|---------------|---------------|

E||---------------|---------------|-----------------|---------------|-------------|
B||--4------------|--4------------|-----------------|---------------|-------------|
G||--2------------|--2------------|------------0----|--2----0----0--|--0-------0--|
D||--4------------|--4------------|--2----4----2----|--2----2----4--|--2-------4--|
A||--2------------|--2------------|--2----2----2----|--2----2----2--|--2-------2--|
E||---------------|---------------|--0----0---------|---------------|-------------|

E||---------------|-----------------|----------------|---------------|------------|
B||---------------|-----------------|----------------|---------------|------------|
G||--0------------|--4----2----0----|--0--------0----|--2------------|------------|
D||--2------------|--2----2----2----|--4--------2----|--2------------|--2---------|
A||--2------------|--2----2----2----|--2--------2----|--4------------|------------|
E||---------------|-----------------|----------------|---------------|------------|

E||-----------------|---------------|-------------|-------------|-----------------|
B||-----------------|---------------|-------------|-------------|-----------------|
G||------------0----|--2----0----0--|--0-------0--|--0----------|--4----2----0----|
D||--2----4----2----|--2----2----4--|--2-------4--|--2----------|--2----2----2----|
A||--2----2----2----|--2----2----2--|--2-------2--|--2----------|--2----2----2----|
E||--0----0---------|---------------|-------------|-------------|-----------------|

E||----------------|---------------|--------------|---------------|---------------|
B||----------------|---------------|--------------|--0------------|--0------------|
G||--0--------0----|--2------------|--------------|--0------------|--0------------|
D||--4--------2----|--2------------|--2-----------|--2------------|--2------------|
A||--2--------2----|--4------------|--------------|--3------------|--3------------|
E||----------------|---------------|--------------|---------------|---------------|

E||---------------|---------------|--3------------|--3------------|---------------|
B||--0------------|--0------------|--3------------|--3------------|--5------------|
G||--2------------|--2------------|--4------------|--4------------|--5------------|
D||--1------------|--1------------|--5------------|--5------------|--5------------|
A||--2------------|--2------------|--5------------|--5------------|--3------------|
E||---------------|---------------|--3------------|--3------------|---------------|

E||---------------|---------------|---------------|--x----x----x--|--x----x----x--|
B||--5------------|--4------------|--4------------|--x----x----x--|--x----x----x--|
G||--5------------|--5------------|--5------------|--x----x----x--|--x----x----x--|
D||--5------------|--5------------|--5------------|--x----x----x--|--x----x----x--|
A||--3------------|--3------------|--3------------|--x----x----x--|--x----x----x--|
E||---------------|---------------|---------------|--x----x----x--|--x----x----x--|

E||--3------------|--0------------|--0------------|---------------|--3------------|
B||--3------------|--0------------|--0------------|--0------------|--3------------|
G||--0------------|--0------------|--0------------|--0------------|--0------------|
D||--0------------|--4------------|--2------------|--4------------|--0------------|
A||---------------|---------------|--4------------|--6------------|---------------|
E||--3------------|--2------------|---------------|---------------|--3------------|

E||--0------------|--0------------|---------------|--3------------|--0------------|
B||--0------------|--0------------|--0------------|--3------------|--0------------|
G||--0------------|--0------------|--0------------|--0------------|--0------------|
D||--4------------|--2------------|--4------------|--0------------|--4------------|
A||---------------|--4------------|--6------------|---------------|---------------|
E||--2------------|---------------|---------------|--3------------|--2------------|

E||--0------------|---------------|---------------|---------------|---------------|
B||--0------------|--0------------|--0------------|--0------------|---------------|
G||--0------------|--0------------|--2------------|--2------------|--0------------|
D||--2------------|--4------------|--2------------|--1------------|--4------------|
A||--4------------|--6------------|--0------------|--2------------|--3------------|
E||---------------|---------------|---------------|---------------|--2------------|

E||---------------|---------------|---------------|---------------|---------------|
B||---------------|--0------------|--0------------|--0------------|--0------------|
G||--0------------|--0------------|--0------------|--2------------|--2------------|
D||--4------------|--2------------|--2------------|--1------------|--1------------|
A||--3------------|--3------------|--3------------|--2------------|--2------------|
E||--2------------|---------------|---------------|---------------|---------------|

E||--0------------|--0------------||
B||--0------------|--0------------||
G||--0------------|--0------------||
D||--4------------|--4------------||
A||--2------------|--2------------||
E||--0------------|--0------------||
 
 
Chris Cornell - Cant Change Me Acoustic :: indexed at Ultimate Guitar.
Cant Change Me Acoustic tabs @ 911Tabs

About the artist behind Cant Change Me Acoustic:

Chris Cornell (born Christopher John Boyle on July 20, 1964) is an American musician best known as the lead singer and songwriter for rock bands Soundgarden (1984–1997) and Audioslave (2001–2007). He was the founder and frontman for Temple of the Dog, the one-off tribute band dedicated to his former roommate, Andrew Wood, and he has released two solo albums, Euphoria Morning (1999) and Carry On (2007).

Indexed at Wikipedia.

Show us your talent, perform Cant Change Me Acoustic!

Here you can post a video or audio performance. Tell me more ...
Where can we find your performance? Tell me more ...
Your comment:
Please, log in to post your performance.