Artists by letter: A B C D E F G H I J K L M N O P Q R S T U V W X Y Z 0-9

 
Word Is Bond
Danko Jones
Word is Bond (Born a lion)
Tabbed by: Nick Durden
you got to listen to the song to get the perfect timing, its easy ;)
please comment!

Intro: 
|----------------------|
|----------------------|
|----------------------|
|---5-5-5---7-7-7------| X 8
|---5-5-5---7-7-7------|
|---3-3-3---5-5-5------|

Verse:
|----------------------|
|----------------------|
|----------------------|
|---5-5-5---7-7-7------| 
|---5-5-5---7-7-7------|
|---3-3-3---5-5-5------|

This is the time
this is the place
I'm gonna make it happen baby
 I'm on the make
And there might be a million other people tryin to do what i do
And there might be a million girls tryin to get with this man
But I only got eyes for you

|------------------------------------|
|------------------------------------|
|--------------5-3-----------5-------|
|--3-5-5-5-3-5-5-3-5---3-5-3-5-3-4---| 
|--3-5-5-5-3-5-3-3-5---3-5-3-3-3-4---|
|--3-3-3-3-3-3-----3---3-3-3---3-2---|
And if you want to do it I will do it

|------------------------------------|
|------------------------------------|
|--------------5-3-----------5-------|
|--3-5-5-5-3-5-5-3-5---3-5-3-5-3-4---| 
|--3-5-5-5-3-5-3-3-5---3-5-3-3-3-4---|
|--3-3-3-3-3-3-----3---3-3-3---3-2---|
My word is my bond

|----------------------|
|----------------------|
|----------------------|
|---5-5-5---7-7-7------| 
|---5-5-5---7-7-7------|
|---3-3-3---5-5-5------|

When I say I'm in love
you best believe I'm in love/ 
LUV, PYT
Cause I am the phenomenon who always wants to get it on
I've chosen you, you're the one I know i come on strong
Just show me some leg and I'll be ready for bed
Gonna take you to the mornin' 'till you're light in the head

|------------------------------------|
|------------------------------------|
|--------------5-3-----------5-------|
|--3-5-5-5-3-5-5-3-5---3-5-3-5-3-4---| 
|--3-5-5-5-3-5-3-3-5---3-5-3-3-3-4---|
|--3-3-3-3-3-3-----3---3-3-3---3-2---|
And if you want it I will do it

|------------------------------------|
|------------------------------------|
|--------------5-3-----------5-------|
|--3-5-5-5-3-5-5-3-5---3-5-3-5-3-4---| 
|--3-5-5-5-3-5-3-3-5---3-5-3-3-3-4---|
|--3-3-3-3-3-3-----3---3-3-3---3-2---|
My word is my bond

|------------------------------------|
|------------------------------------|
|--------------5-3----------5--------|
|--3-5-5-5-3-5-5-3-5--3-5-3-5-3-4----| 
|--3-5-5-5-3-5-3-3-5--3-5-3-3-3-4----|
|--3-3-3-3-3-3-----3--3-3-3---3-2----|
And when I do it you will love it

(This is just Bass and Drums)
Now I know that everybody's been talkin' behind my back
saying all kinds of crazy things
But when I'm singin' 'bout 'ya , I'm thinking 'bout ya
And there ain't nobody else that I'm thinkin' about
Let me show you with this line, with this statement right here

|-------------------------------|
|-------------------------------|
|-------------------------------|
|--------------------------5-5--| X4
|--------------------------3-3--|
|--3-5-3-5-3-5-3-5-3-5-3-5------| (The E string is palm muted)

When you shake your booty baby, you get me so hot hot X4

Verse:
|----------------------|
|----------------------|
|----------------------|
|---5-5-5---7-7-7------| 
|---5-5-5---7-7-7------|
|---3-3-3---5-5-5------|

This is the time
this is the place
I'm gonna make it happen baby
 I'm on the make
And there might be a million other people tryin to do what i do
And there might be a million girls tryin to get with this man
But I only got eyes for you

|------------------------------------|
|------------------------------------|
|--------------5-3-----------5-------|
|--3-5-5-5-3-5-5-3-5---3-5-3-5-3-4---| 
|--3-5-5-5-3-5-3-3-5---3-5-3-3-3-4---|
|--3-3-3-3-3-3-----3---3-3-3---3-2---|
And if you want it I will do it
|------------------------------------|
|------------------------------------|
|--------------5-3-----------5-------|
|--3-5-5-5-3-5-5-3-5---3-5-3-5-3-4---| 
|--3-5-5-5-3-5-3-3-5---3-5-3-3-3-4---|
|--3-3-3-3-3-3-----3---3-3-3---3-2---|
My word is my bond

|------------------------------------|
|------------------------------------|
|--------------5-3----------5--------|
|--3-5-5-5-3-5-5-3-5--3-5-3-5-3-4----| 
|--3-5-5-5-3-5-3-3-5--3-5-3-3-3-4----|
|--3-3-3-3-3-3-----3--3-3-3---3-2----|
And when I do it you will love it  YEAH !!

 
 
Danko Jones - Word Is Bond :: indexed at Ultimate Guitar.
Word Is Bond tabs @ 911Tabs
People who played Danko Jones - Word Is Bond also played these songs by Danko Jones:
Code Of The Road Tab, First Date Tab, Full Of Regret Tab, Had Enough Tab, Take Me Home Chords, Forget My Name Tab

About the artist behind Word Is Bond:

Danko Jones is a three-piece hard rock band from Toronto, Canada.

The band consists of Danko Jones (vocals/guitar), JC (also known as John Calabrese) (bass guitar), and Dan Cornelius (drums).

Indexed at Wikipedia.

Show us your talent, perform Word Is Bond!

Here you can post a video or audio performance. Tell me more ...
Where can we find your performance? Tell me more ...
Your comment:
Please, log in to post your performance.