Artists by letter: A B C D E F G H I J K L M N O P Q R S T U V W X Y Z 0-9

 
We Sweat Blood
s: slide (to)
D: down
U: up
/: slide all the way down

We Sweat Blood " Danko Jones

[Intro] x2
|-------------------|   |----------------|
|-------------------|   |----------------|
|-------------------|x3 |----------------|
|--(x)9--s9---7-9---|   |--(x)12--(x)10--|
|--(x)9-----9-------|   |--(x)12--(x)10--|
|--(x)7-------------|   |--(x)10--(x)8---|
    U D                     U D    U D

[Verse1]
|-----|
|-----|
|-----|
|-9/--|
|-9/--|
|-7/--|
    I'm into never stoppin', I'm making no sense
But I can never sit still, I keep on ridin'

|-----|
|-----|
|-----|
|-9/--|
|-9/--|
|-7/--|
    When you're fast asleep, I'm working all night
I never sleep either, I'll take a break when I die

|-----|
|-----|
|-----|
|-9/--|
|-9/--|
|-7/--|
    Every drop is precious
Makes you wanna cry
Bring me close to the edge
Dare me to die

|-----|
|-----|
|-----|
|-9/--|
|-9/--|
|-7/--|
    Can't call it driven
When you're driving

|-----|
   |-----|
   |-----|
   |-9/--|
   |-9/--|
   |-7/--|
It's easy to stay awake 
When your blood is boiling

[Chorus]
|-------------------|-------------------|-------------------|   
|-------------------|-------------------|-------------------|   
|-------------------|-------------------|-------------------|
|--(x)9--s9---7-9---|--(x)9--s9---7-9---|--(x)9--s9---7-9---|
|--(x)9-----9-------|--(x)9-----9-------|--(x)9-----9-------|
|--(x)7-------------|--(x)7-------------|--(x)7-------------|
    U D                 U D                 U D             
                                            You wanna know why?

|----------------|-------------------|-------------------|
|----------------|-------------------|-------------------|
|----------------|-------------------|-------------------|
|--(x)12--(x)10--|--(x)9--s9---7-9---|--(x)9--s9---7-9---|
|--(x)12--(x)10--|--(x)9-----9-------|--(x)9-----9-------|
|--(x)10--(x)8---|--(x)7-------------|--(x)7-------------|
    U D    U D       U D                 U D             
      We   sweat     blood               Me, myself and I

|-------------------|----------------|-----|   
|-------------------|----------------|-----|
|-------------------|----------------|-----|
|--(x)9--s9---7-9---|--(x)12--(x)10--|-9/--|
|--(x)9-----9-------|--(x)12--(x)10--|-9/--|
|--(x)7-------------|--(x)10--(x)8---|-7/--|
    U D                 U D    U D
                          We   sweat  blood

[Verse2]
If I could sleep with eyes open, I damn well will
Some people need a push, I need a sleeping-pill

|-----|
|-----|
|-----|
|-9/--|
|-9/--|
|-7/--|
    I like to cut through bullshit with my mouth as a knife
I like to stick it to ya, cause it only feels right

|-----|
|-----|
|-----|
|-9/--|
|-9/--|
|-7/--|
   Every drop is precious
Makes you wanna cry

|-----|
|-----|
|-----|
|-9/--|
|-9/--|
|-7/--|
    Bring me close to the edge
Dare me to die

|-----|
|-----|
|-----|
|-9/--|
|-9/--|
|-7/--|
    Can't call it driven

|-----|
|-----|
|-----|
|-9/--|
|-9/--|
|-7/--|
    When you're driving

|-----|
|-----|
|-----|
|-9/--|
|-9/--|
|-7/--|
Easy to stay awake
When your blood is boiling

[Chorus]
|-------------------|-------------------|-------------------|   
|-------------------|-------------------|-------------------|   
|-------------------|-------------------|-------------------|
|--(x)9--s9---7-9---|--(x)9--s9---7-9---|--(x)9--s9---7-9---|
|--(x)9-----9-------|--(x)9-----9-------|--(x)9-----9-------|
|--(x)7-------------|--(x)7-------------|--(x)7-------------|
    U D                 U D                 U D             
                            You wanna know why? Huh?

|----------------|-------------------|-------------------|
|----------------|-------------------|-------------------|
|----------------|-------------------|-------------------|
|--(x)12--(x)10--|--(x)9--s9---7-9---|--(x)9--s9---7-9---|
|--(x)12--(x)10--|--(x)9-----9-------|--(x)9-----9-------|
|--(x)10--(x)8---|--(x)7-------------|--(x)7-------------|
    U D    U D       U D                 U D             
      We   sweat     blood,  That's right,     That's right,

|-------------------|----------------|-----|   
|-------------------|----------------|-----|
|-------------------|----------------|-----|
|--(x)9--s9---7-9---|--(x)12--(x)10--|-9/--|
|--(x)9-----9-------|--(x)12--(x)10--|-9/--|
|--(x)7-------------|--(x)10--(x)8---|-7/--|
    U D                 U D    U D
          That's right,    We   sweat  blood

|-------------------|-------------------|-------------------|   
|-------------------|-------------------|-------------------|   
|-------------------|-------------------|-------------------|
|--(x)9--s9---7-9---|--(x)9--s9---7-9---|--(x)9--s9---7-9---|
|--(x)9-----9-------|--(x)9-----9-------|--(x)9-----9-------|
|--(x)7-------------|--(x)7-------------|--(x)7-------------|
    U D                 U D                 U D             
                         I love it,          I love it,

|----------------|-------------------|-------------------|
|----------------|-------------------|-------------------|
|----------------|-------------------|-------------------|
|--(x)12--(x)10--|--(x)9--s9---7-9---|--(x)9--s9---7-9---|
|--(x)12--(x)10--|--(x)9-----9-------|--(x)9-----9-------|
|--(x)10--(x)8---|--(x)7-------------|--(x)7-------------|
    U D    U D       U D                 U D             
      We   sweat     blood

|-------------------|----------------|----|   
|-------------------|----------------|----|
|-------------------|----------------|----|
|--(x)9--s9---7-9---|--(x)12--(x)10--|-9--|
|--(x)9-----9-------|--(x)12--(x)10--|-9--|
|--(x)7-------------|--(x)10--(x)8---|-7--|
    U D                 U D    U D
      oooohh...         We     sweat  blood

[Bridge]
|-----------------------|
|-----------------------|
|-----------------------| x8
|--99999999--12--14--9--|
|------------12--14--9--|
|------------10--12--7--|

I wish there was 80 seconds in a minute
And 90 minutes in an hour
60 hours in a day
500 days in a year

Cause every drop of blood
And every bead of sweat
And every night awake
Each day to slave away

[Chorus] Riff x4
|-------------------|-------------------|------------------|---------------|
|-------------------|-------------------|------------------|---------------|   
|-------------------|-------------------|------------------|---------------|
|--(x)9--s9---7-9---|--(x)9--s9---7-9---|--(x)9--s9---7-9--|--(x)12--(x)10-|
|--(x)9-----9-------|--(x)9-----9-------|--(x)9-----9------|--(x)12--(x)10-|
|--(x)7-------------|--(x)7-------------|--(x)7------------|--(x)10--(x)8--|
    U D                 U D                 U D                U D    U D

We sweat blood
And it feels so good, it feels so good
We sweat blood
I want more, and I want more
We sweat blood
Give it to me, give it to me
We sweat blood

[Outro]
|------------------------------------|
|------------------------------------|
|------------------------------------|
|-9/---9/---9/---(x)12--(x)10--(x)9/-|
|-9/---9/---9/---(x)12--(x)10--(x)9/-|
|-7/---7/---7/---(x)10--(x)8---(x)7/-|

 
 
Danko Jones - We Sweat Blood :: indexed at Ultimate Guitar.
We Sweat Blood tabs @ 911Tabs
People who played Danko Jones - We Sweat Blood also played these songs by Danko Jones:
Code Of The Road Tab, First Date Tab, Full Of Regret Tab, Had Enough Tab, Take Me Home Chords, Forget My Name Tab

About the artist behind We Sweat Blood:

Danko Jones is a three-piece hard rock band from Toronto, Canada.

The band consists of Danko Jones (vocals/guitar), JC (also known as John Calabrese) (bass guitar), and Dan Cornelius (drums).

Indexed at Wikipedia.

Show us your talent, perform We Sweat Blood!

Here you can post a video or audio performance. Tell me more ...
Where can we find your performance? Tell me more ...
Your comment:
Please, log in to post your performance.