Artists by letter: A B C D E F G H I J K L M N O P Q R S T U V W X Y Z 0-9

 
Take My Hand
Song: Take My Hand
Artist: Callalily
Ear Tabber: Elvin Hayes Gentiles

Intro part 1:
e|----------------------------|----------------------------|
B|--5--77---55----------------|--5--77---5-----------------|
G|--------7----4-6-777-44444--|--------7----4-6-777-44444--|
D|----------------------------|----------------------------|
A|----------------------------|----------------------------|
E|----------------------------|----------------------------|

Intro part 2:
Guitar 1:
e|-----------|------------|------------|------------|
B|-----------|------------|------------|------------|
G|--7777777--|------------|------------|------------|
D|--7777777--|--77777777--|--55555555--|--77777777--|
A|--5555555--|--77777777--|--55555555--|--77777777--|
E|-----------|--55555555--|--33333333--|--55555555--|
Guitar 2:
e|--------------------------------------|
B|--10--10--10--10------10--10--10--10--|
G|----11--11--11--11--12--12--12--12----|
D|--------------------------------------|
A|--------------------------------------|
E|--------------------------------------|
(continued)
e|--------------------------------------|
B|----10--10--10--10----10--10--10--10--|
G|--11--11--11--11----12--12--12--12----|
D|--------------------------------------|
A|--------------------------------------|
E|--------------------------------------|

Verse:
Guitar 1:
e|------------|------------|------------|------------|
B|------------|------------|------------|------------|
G|--77777777--|--77777777--|------------|------------|
D|--77777777--|--77777777--|--55555555--|--77777777--| 2x
A|--55555555--|--44444444--|--55555555--|--77777777--|
E|------------|------------|--33333333--|--55555555--|
Guitar 2:
e|-----10~----|------------|-----10~----|------------|
B|--10--------|------------|--10--------|------------|
G|------------|------------|------------|------------|
D|------------|------------|------------|------------| 2x
A|------------|------------|------------|------------|
E|------------|------------|------------|------------|

Refrain:
Guitar 1:
e|------------|------------|------------|------------|
B|------------|------------|------------|------------|
G|------------|------------|------------|------------|
D|--55555555--|--77777777--|--55555555--|--77777777--|
A|--55555555--|--77777777--|--55555555--|--77777777--|
E|--33333333--|--55555555--|--33333333--|--55555555--|
Guitar 2:
e|--------------|
B|--------------|
G|--9999--7777--|
D|--xxxx--xxxx--| 4x
A|--7777--5555--|
E|--------------|

Chorus:
Guitar 1:
e|------------|------------|------------|------------|
B|------------|------------|------------|------------|
G|--77777777--|------------|--44444444--|------------|
D|--77777777--|--55555555--|--44444444--|--55557777--| 2x
A|--55555555--|--55555555--|--22222222--|--55557777--|
E|------------|--33333333--|------------|--33335555--|
Guitar 2:
e|------------------------------------------------|
B|------------------------------------------------|
G|--9999--7777--9999--7777--44444444--5555--7777--|
D|--xxxx--xxxx--xxxx--xxxx--xxxxxxxx--xxxx--xxxx--| 2x
A|--7777--5555--7777--5555--22222222--3333--5555--|
E|------------------------------------------------|

Interlude:
Guitar 1:
e|-----------|------------|------------|------------|
B|-----------|------------|------------|------------|
G|--7777777--|------------|------------|------------|
D|--7777777--|--77777777--|--55555555--|--77777777--|
A|--5555555--|--77777777--|--55555555--|--77777777--|
E|-----------|--55555555--|--33333333--|--55555555--|
Guitar 2:
e|--------------------------------------|
B|--10--10--10--10------10--10--10--10--|
G|----11--11--11--11--12--12--12--12----|
D|--------------------------------------|
A|--------------------------------------|
E|--------------------------------------|
(continued)
e|--------------------------------------|
B|----10--10--10--10----10--10--10--10--|
G|--11--11--11--11----12--12--12--12----|
D|--------------------------------------|
A|--------------------------------------|
E|--------------------------------------|

Verse:
Guitar 1:
e|------------|------------|------------|------------|
B|------------|------------|------------|------------|
G|--77777777--|--77777777--|------------|------------|
D|--77777777--|--77777777--|--55555555--|--77777777--| 2x
A|--55555555--|--44444444--|--55555555--|--77777777--|
E|------------|------------|--33333333--|--55555555--|
Guitar 2:
e|----10-------------|
B|--10--10-8-7-8-10--|
G|-------------------| Repeat many times
D|-------------------| hanggang matapos
A|-------------------| ang verse...
E|-------------------|

Refrain:
Guitar 1:
e|------------|------------|------------|------------|
B|------------|------------|------------|------------|
G|------------|------------|------------|------------|
D|--55555555--|--77777777--|--55555555--|--77777777--|
A|--55555555--|--77777777--|--55555555--|--77777777--|
E|--33333333--|--55555555--|--33333333--|--55555555--|
Guitar 2:
e|--------------|
B|--------------|
G|--9999--7777--|
D|--xxxx--xxxx--| 4x
A|--7777--5555--|
E|--------------|

Chorus:
Guitar 1:
e|------------|------------|------------|------------|
B|------------|------------|------------|------------|
G|--77777777--|------------|--44444444--|------------|
D|--77777777--|--55555555--|--44444444--|--55557777--| 2x
A|--55555555--|--55555555--|--22222222--|--55557777--|
E|------------|--33333333--|------------|--33335555--|
Guitar 2:
e|------------------------------------------------|
B|------------------------------------------------|
G|--9999--7777--9999--7777--44444444--5555--7777--|
D|--xxxx--xxxx--xxxx--xxxx--xxxxxxxx--xxxx--xxxx--| 2x
A|--7777--5555--7777--5555--22222222--3333--5555--|
E|------------------------------------------------|

Adlib:
Guitar 1:
e|-----------|------------|------------|------------|
B|-----------|------------|------------|------------|
G|--7777777--|------------|------------|------------|
D|--7777777--|--77777777--|--55555555--|--77777777--| 2x
A|--5555555--|--77777777--|--55555555--|--77777777--|
E|-----------|--55555555--|--33333333--|--55555555--|
Guitar 2:
e|------------------------|---------------------------------|
B|------------------------|---------------------------------|
G|--11/12-12-12/14-12-11--|--11/12-12-12/14-12-11/12-12-9~--|
D|------------------------|---------------------------------|
A|------------------------|---------------------------------|
E|------------------------|---------------------------------|
(continued)
e|----------------------------|
B|----------------------------|
G|--11/12-12-12/14-12-11--7~--|
D|------------------------7~--|
A|------------------------5~--|
E|----------------------------|

Bridge:
Bass:(plam muted)
G|--------------------------------------|
D|--------------------------------------|
A|--5-5-5-5-----------------------------| 2x
E|-----------5-5-5-5--3-3-3-3--5-5-5-5--|
Both Guitars:(enters in the 2nd round)
(palm muted)
e|-----------|------------|------------|------------|
B|-----------|------------|------------|------------|
G|--7777777--|------------|------------|------------|
D|--7777777--|--77777777--|--55555555--|--77777777--| 
A|--5555555--|--77777777--|--55555555--|--77777777--|
E|-----------|--55555555--|--33333333--|--55555555--|

Chorus:
Guitar 1:
e|------------|------------|------------|------------|
B|------------|------------|------------|------------|
G|--77777777--|------------|--44444444--|------------|
D|--77777777--|--55555555--|--44444444--|--55557777--| 2x
A|--55555555--|--55555555--|--22222222--|--55557777--|
E|------------|--33333333--|------------|--33335555--|
Guitar 2:
e|------------------------------------------------|
B|------------------------------------------------|
G|--9999--7777--9999--7777--44444444--5555--7777--|
D|--xxxx--xxxx--xxxx--xxxx--xxxxxxxx--xxxx--xxxx--| 2x
A|--7777--5555--7777--5555--22222222--3333--5555--|
E|------------------------------------------------|

 
 
Callalily - Take My Hand :: indexed at Ultimate Guitar.
Take My Hand tabs @ 911Tabs

About the artist behind Take My Hand:

Callalily is a Filipino pop-rock band, composed of Kean Cipriano (Vocals), Alden Acosta (Lead Guitar), Tatsi Jamnague (Rhythm Guitar), Aaron Ricafrente (Bass) and Lemuel Belaro (Drums).

Indexed at Wikipedia.

Show us your talent, perform Take My Hand!

Here you can post a video or audio performance. Tell me more ...
Where can we find your performance? Tell me more ...
Your comment:
Please, log in to post your performance.