Artists by letter: A B C D E F G H I J K L M N O P Q R S T U V W X Y Z 0-9

 
Stars
Stars Tab by Callalily
www.Ultimate Guitar.Com

tinab ni Villy Cenita ,16 yrs old from NEU, Quezon City
paki add po me sa friendster  vj_villy@yahoo.com
astig din tong kanta na to pati pangalan ng banda
this is my first time

Guitar I -rhythm
Guitar II-lead

Intro: Lead
Guitar II  play this 6x
e--------10-------------------------------------|
B---8-8-----8-10-10---10h12-10-8----------------|
G-----------------------------------------------|
D-----------------------------------------------|
A-----------------------------------------------|
E-----------------------------------------------|

Guitar I after playing the intro 4x w/ drums
e---------------------------------------------------------------|
B---------------------------------------------------------------|
G---------------------------------------------------------------|
D-9-9-9-9-9-9---5-5-5-5-5-5-5-5-----------------7-7-7-7-7-------|
A-7-7-7-7-7-7---3-3-3-3-3-3-3-3---5-5-5-5-5-5---5-5-5-5-5-------|
E---------------------------------3-3-3-3-3-3-------------------|

Verse & Refrain

Guitar I
yung x po ibig sabihin papatungan yung string para di tumunog tapos iistrumin
power chords
        E              C            G               D
e-----------------------------------------------------------------|
B-----------------------------------------------------------------|
G-----------------------------------------------------------------|
D-x-x-9-x-x-9-x--5-x-x-5-x-x-5----------------7-x-x-7-x-x-7-------|
A-x-x-7-x-x-7-x--3-x-x-3-x-x-3--x-x-5-x-x-5---5-x-x-5-x-x-5-------|
E-------------------------------x-x-3-x-x-3-----------------------|
Guitar II
pag dating sa bandang dulo ng D papasok ito
e------10-------------------------------------------|dalawang beses sa 
B--7h8------(3x ito tapos pa echo-------------------| part na to
G------------na papahina kaya nyo nayun)------------|
D---------------------------------------------------|
A---------------------------------------------------|
E---------------------------------------------------|
tapos pasok nito daloawang beses din tapos intro na
e------------10-10-10-10-10--|
B--7-7-7-8-8-----------------|
G----------------------------|
D----------------------------|
A----------------------------|
E----------------------------|

Chorus
G-D-E-C
parehas lang yung dalawang gitara,
yung isa power chords, yung isa chords

(Repeat Verse & Refrain)
(pero yung bandang lead sa dulo 3x na)

Adlib

e--------------------------------------------------------|
B--------------------------------------------------------|
G------------------------------------14h16-14------------|
D-----------10-12-10-12s14--17-15-17----------17-14*-----|
A--9h10-9------------------------------------------------|
E--------10----------------------------------------------|

e--------------------------------------------------------|
B--------------------------------------------------------|
G--------------------------------12h14-------------------|
D----------10-9----12s14---12h14--------12h14------------|
A--10-9---------10---------------------------------------|
E-------10-----------------------------------------------|

tapos pasok to 2x
        E              C            G               D
e-----------------------------------------------------------------|
B-----------------------------------------------------------------|
G-----------------------------------------------------------------|
D-x-x-9-x-x-9-x--5-x-x-5-x-x-5----------------7-x-x-7-x-x-7-------|
A-x-x-7-x-x-7-x--3-x-x-3-x-x-3--x-x-5-x-x-5---5-x-x-5-x-x-5-------|
E-------------------------------x-x-3-x-x-3-----------------------|

then after 2x,sa last D biglang pause then drums tapos ito

e-----------|
B-----------|
G-----------|
D--5-5-5-5--|
A--3-3-3-3--|
E-----------|

(repeat Chorus 3x)
(repeat intro)

---------EnD-----------------------------------------------------------------




 
 
Callalily - Stars :: indexed at Ultimate Guitar.
Stars tabs @ 911Tabs

About the artist behind Stars:

Callalily is a Filipino pop-rock band, composed of Kean Cipriano (Vocals), Alden Acosta (Lead Guitar), Tatsi Jamnague (Rhythm Guitar), Aaron Ricafrente (Bass) and Lemuel Belaro (Drums).

Indexed at Wikipedia.

Show us your talent, perform Stars!

Here you can post a video or audio performance. Tell me more ...
Where can we find your performance? Tell me more ...
Your comment:
Please, log in to post your performance.