Artists by letter: A B C D E F G H I J K L M N O P Q R S T U V W X Y Z 0-9

 
Magbalik
Song: Magbalik
Artist: Callalily
Ear Tabber: Elvin Hayes Gentiles
School: ParaƱaque National High School (DOST)

[Intro part 1](Bass)

G|-------------|-------------|
D|-----4-4/6~--|----2--------|
A|---2---------|--0---2/4----| 2x
E|--0----------|-------------|


[Intro part 2]

Guitar 1:
e|---------------------------------------------------------------------------------------|
B|---------------------------------------------------------------------------------------|
G|--9-9-9-9-9-9-9-9--4-4-4-4-4-4-4-4--6-6-6-6-6-6-6-6------------------------------------|
D|--9-9-9-9-9-9-9-9--4-4-4-4-4-4-4-4--6-6-6-6-6-6-6-6--7-7-7-7-7-7-7-7-------------------| 2x
A|--7-7-7-7-7-7-7-7--2-2-2-2-2-2-2-2-------------------4-4-4-4-4-4-4-4--7-7-7-7-7-7-7-7--|
E|----------------------------------------------------------------------5-5-5-5-5-5-5-5--|
Guitar 2:
e|----7-----------|----7-----------|----7---------------------------------|
B|-5-5-7-5-7/9-7--|-5-5-7-5-7/9-7--|-5-5-7-5-7/9-7-9/10-9-9/10-9-7\5------|
G|----------------|----------------|--------------------------------------|
D|----------------|----------------|--------------------------------------|
A|----------------|----------------|--------------------------------------|
E|----------------|----------------|--------------------------------------|
(continued)
e|----7-----------|----7-----------|----7---------------------------------|
B|-5-5-7-5-7/9-7--|-5-5-7-5-7/9-7--|-5-5-7-5-7/9-7-9/10-9-9/12~~----------|
G|----------------|----------------|--------------------------------------|
D|----------------|----------------|--------------------------------------|
A|----------------|----------------|--------------------------------------|
E|----------------|----------------|--------------------------------------|


[Verse](Acoustic)

e|--00000000--00000000--00000000--00000000--|
B|--00000000--00000000--00000000--22222222--|
G|--11111111--44444444--66666666--22222222--|
D|--22222222--44444444--66666666--22222222--| 4x
A|--22222222--22222222--44444444------------|
E|------------------------------------------|


[Refrain]

e|----------------------|----------------------|
B|----------------------|----------------------|
G|------------44444444--|------------44444444--|
D|--44444444--44444444--|--44444444--44444444--|
A|--44444444--22222222--|--44444444--22222222--|
E|--22222222------------|--22222222------------|
(continued)                                      Guitar 2:(Fill in)
e|----------------------|----------------------| |-------------|
B|----------------------|----------------------| |-------------|
G|------------44444444--|----------------------| |-------------|
D|--44444444--44444444--|--77777777--99999999--| |-------------|
A|--44444444--22222222--|--77777777--99999999--| |-----7h9-7~--|
E|--22222222------------|--55555555--77777777--| |--7h9--------|


[Chorus]

(Acoustic)
e|--00000000--00000000--00000000--00000000--|
B|--00000000--00000000--00000000--22222222--|
G|--11111111--44444444--66666666--22222222--|
D|--22222222--44444444--66666666--22222222--|
A|--22222222--22222222--44444444------------|
E|------------------------------------------|
(continued)
e|------------------------------------------|
B|------------------------------------------|
G|--99999999--44444444--66666666------------|
D|--99999999--44444444--66666666--77777777--|
A|--77777777--22222222--44444444--77777777--|
E|--------------------------------55555555--|


[Interlude]

Guitar 1:
e|------------------------------------------|
B|------------------------------------------|
G|--99999999--44444444--66666666------------|
D|--99999999--44444444--66666666--77777777--|
A|--77777777--22222222--44444444--77777777--|
E|--------------------------------55555555--|
Guitar 2:
e|----7-----------|----7-----------|----7---------------------------------|
B|-5-5-7-5-7/9-7--|-5-5-7-5-7/9-7--|-5-5-7-5-7/9-7-9/10-9-9/10-9-7\5------|
G|----------------|----------------|--------------------------------------|
D|----------------|----------------|--------------------------------------|
A|----------------|----------------|--------------------------------------|
E|----------------|----------------|--------------------------------------|


[Verse]

e|--00000000--00000000--00000000--00000000--|
B|--00000000--00000000--00000000--22222222--|
G|--11111111--44444444--66666666--22222222--|
D|--22222222--44444444--66666666--22222222--| 4x
A|--22222222--22222222--44444444------------|
E|------------------------------------------|


[Refrain]

e|----------------------|----------------------|
B|----------------------|----------------------|
G|------------44444444--|------------44444444--|
D|--44444444--44444444--|--44444444--44444444--|
A|--44444444--22222222--|--44444444--22222222--|
E|--22222222------------|--22222222------------|
(continued)
e|----------------------|----------------------|
B|----------------------|----------------------|
G|------------44444444--|----------------------|
D|--44444444--44444444--|--77777777--99999999--|
A|--44444444--22222222--|--77777777--99999999--|
E|--22222222------------|--55555555--77777777--|


[Chorus]

e|---------------------------------------|
B|--------------P------------------------|
G|--99999999--4-A----66666666------------|
D|--99999999--4-U----66666666--77777777--| 2x
A|--77777777--2-S----44444444--77777777--|
E|--------------E--------------55555555--|


[Adlib:]

Guitar 1
e|------------------------------------------------------------------|
B|------------------------------------------------------------------|
G|--99999999--44444444------------9--9-11--11-13--13-14--13--11--9--|
D|--99999999--44444444--77777777--9--9-11--11-13--13-14--13--11--9--|
A|--77777777--22222222--77777777--7--7-9---9--11--11-12--11--9---7--|
E|----------------------55555555------------------------------------|
(continued)
e|----------------------------------------|
B|----------------------------------------|
G|--66666666--44444444--------------------|
D|--66666666--44444444--7777777777777777--|
A|--44444444--22222222--7777777777777777--|
E|----------------------5555555555555555--|
Guitar 2:
e|-------------------------------------------------7/12-121212121212--|
B|-------------------12121212-10101010-9999-777777--------------------|
G|--------6h8h9~-1111-------------------------------------------------|
D|---6h7h9------------------------------------------------------------|
A|--7-----------------------------------------------------------------|
E|--------------------------------------------------------------------|
(continued)
e|--12-1214-1416-1614-1412-12-12p11----------------------------|
B|-------------------------------------------------------------|
G|-------------------------------------------------------------|
D|-------------------------------------------------------------|
A|-------------------------------------------------------------|
E|-------------------------------------------------------------|
(continued)
e|----12-11---12-11---12-11---12-11----17-16---17-16---17-16----17-16--|
B|--12------12------12------12---------------17------17------17--------|
G|---------------------------------------------------------------------|
D|---------------------------------------------------------------------|
A|---------------------------------------------------------------------|
E|---------------------------------------------------------------------|
(continued)
e|--1212-1111----------------------------------------------------------|
B|-----------12----------------------10101010--------------------------|
G|-------------9h11-12b---9----9-9h11---------9999---------------------|
D|--------------------------11---------------------9999-7777-6h7-6-9~--|
A|-----------------------------------------------------------------7~--|
E|---------------------------------------------------------------------|


[Chorus]

(Acoustic)
e|--00000000--00000000--00000000--00000000--|
B|--00000000--00000000--00000000--22222222--|
G|--11111111--44444444--66666666--22222222--|
D|--22222222--44444444--66666666--22222222--|
A|--22222222--22222222--44444444------------|
E|------------------------------------------|
(continued)
e|------------------------------------------|
B|------------------------------------------|
G|--99999999--44444444--66666666------------|
D|--99999999--44444444--66666666--77777777--|
A|--77777777--22222222--44444444--77777777--|
E|--------------------------------55555555--|


[Outro]

Guitar 1:
e|------------------------------------------|
B|------------------------------------------|
G|--99999999--44444444--66666666------------|
D|--99999999--44444444--66666666--77777777--| 2x
A|--77777777--22222222--44444444--77777777--|
E|--------------------------------55555555--|
Guitar 2:
e|----7-----------|----7-----------|----7---------------------------------|
B|-5-5-7-5-7/9-7--|-5-5-7-5-7/9-7--|-5-5-7-5-7/9-7-9/10-9-9/10-9-7\5------|
G|----------------|----------------|--------------------------------------|
D|----------------|----------------|--------------------------------------|
A|----------------|----------------|--------------------------------------|
E|----------------|----------------|--------------------------------------|
(continued)
e|----7-----------|----7-----------|----7---------------------------------|
B|-5-5-7-5-7/9-7--|-5-5-7-5-7/9-7--|-5-5-7-5-7/9-7-9/10-9-9/12~~----------|
G|----------------|----------------|--------------------------------------|
D|----------------|----------------|--------------------------------------|
A|----------------|----------------|--------------------------------------|
E|----------------|----------------|--------------------------------------|

enjoy.......



************************************

| h  Hammer-on
| p  Pull-off
| b  Bend
| /  Slide up
| \  Slide down
| ~  Vibrato
| P  Pop

************************************
 
 
Callalily - Magbalik :: indexed at Ultimate Guitar.
Magbalik tabs @ 911Tabs

About the artist behind Magbalik:

Callalily is a Filipino pop-rock band, composed of Kean Cipriano (Vocals), Alden Acosta (Lead Guitar), Tatsi Jamnague (Rhythm Guitar), Aaron Ricafrente (Bass) and Lemuel Belaro (Drums).

Indexed at Wikipedia.

Show us your talent, perform Magbalik!

Here you can post a video or audio performance. Tell me more ...
Where can we find your performance? Tell me more ...
Your comment:
Please, log in to post your performance.