Artists by letter: A B C D E F G H I J K L M N O P Q R S T U V W X Y Z 0-9

 
Hintay
hope you like it...
this is my first time to tab a song...
for any comments or suggestions, just email
elisette_danita143@yahoo.com
add me up na rin sa friendster...

Callalily-Hintay

intro:

|--------------------------------------------------------------------------|
|--------------------------------------------------------------------------|
|--------------------------------------------------------------------------|
|---------------------------------8888888----666----11111111111111---------|(2x)
|-----11111111111111----9999999--------------------------------------------|
|--------------------------------------------------------------------------|

Verse 1: E-B-C#m-A

|--------------------------------------------------------------------------|
|--------------------------------------------------------------------------|
|--------------------------------------------------------------------------|
|--------------------------------------------------------------------------|(8x)
|---9h11(3x)---------------------------------------------------------------|
|--------------------------------------------------------------------------|

Refrain: F#m-B, A-B, C#m-B-A

|---------------------------------|
|---------------------------------|
|--------------------444----------|
|------------444-----444----------|(3x)
|------------444-----222----------|
|------------222------------------|

|---------------------------------|
|---------------------------------|
|---------------------------------|
|-------777-------999-------------|
|-------777-------999-------------|
|-------555-------777-------------|

|---------------------------------|
|---------------------------------|
|----666-------444----------------|
|----666-------444-----777--------|
|----444-------222-----777--------|
|----------------------555--------|

Chorus: C#m-B-A-B(2x)

|---------------------------------|
|---------------------------------|
|---666-----444-------------444---|
|---666-----444-----777-----444---|
|---444-----222-----777-----222---|
|-------------------555-----------|

Intro:

Verse 2: E-B-C#m-A

|--------------------------------------------------------------------------|
|--------------------------------------------------------------------------|
|--------------------------------------------------------------------------|
|--------------------------------------------------------------------------|(8x)
|---9h11(3x)---------------------------------------------------------------|
|--------------------------------------------------------------------------|

Chorus: C#m-B-A-B(2x)

|---------------------------------|
|---------------------------------|
|---666-----444-------------444---|
|---666-----444-----777-----444---|
|---444-----222-----777-----222---|
|-------------------555-----------|

Bridge: C#m-B-A-B(2x)

|---------------------------------|
|---------------------------------|
|---666-----444-------------444---|
|---666-----444-----777-----444---|
|---444-----222-----777-----222---|
|-------------------555-----------|

Adlib:

|-------------------------------------------|
|-------------------------------------------|
|---6---8---8/10---8---8\6---8---8/10---6---|
|-------------------------------------------|
|-------------------------------------------|
|-------------------------------------------|

|-------------------------------------------|
|---11(5x)---11/14---11---9---7---6---------|
|-------------------------------------------|
|-------------------------------------------|
|-------------------------------------------|
|-------------------------------------------|

|---------------------------------------------------|
|---11---9---11---11/14----11(2x)---9---11---7---6--|
|---------------------------------------------------|
|---------------------------------------------------|
|---------------------------------------------------|
|---------------------------------------------------|

|-------------------------------------------------------|
|---11---9---11---7---6---11---9---11/14---11---9---11--|
|-------------------------------------------------------|
|-------------------------------------------------------|
|-------------------------------------------------------|
|-------------------------------------------------------|

|-----------------------------------------------|
|---6---7---7/14--11---9---6---7---6---7---7h9--|
|-----------------------------------------------|
|-----------------------------------------------|
|-----------------------------------------------|
|-----------------------------------------------|

|-------------------------------------------------------------------|
|---6---7---7/11---7---6---7----------------------------------------|
|-------------------------------8b--10(4x)--10--11--13--10--11--13--|
|-------------------------------------------------------------------|
|-------------------------------------------------------------------|
|-------------------------------------------------------------------|

Chorus: C#m-B-A-B(2x)

|---------------------------------|
|---------------------------------|
|---666-----444-------------444---|
|---666-----444-----777-----444---|
|---444-----222-----777-----222---|
|-------------------555-----------|

Outro: C#m-B-A-B(2x)

|---------------------------------|
|---------------------------------|
|---666-----444-------------444---|
|---666-----444-----777-----444---|
|---444-----222-----777-----222---|
|-------------------555-----------|





Lyrics:

Verse 1:
Kahit anong gawing pag-iwas,

pilit pa rin kitang hinahanap.

Kahit ilang araw pa ang lumipas,

hindi pa rin sa'yo makatakas.

Refrain:
Nakalimutan mo na ba?

baka naman ako'y nandyan pa,

iyo sanang madama.

Bawat panalangin ko,

sana'y di na mag-isa.

Chorus:
Isipin, limutin.

Bakit di magawang ika'y lisanin?

Pilitin, sabihin mong hanggang dito na lang.

Verse 2:
Abot-tanaw, ako ay natutunaw.

Mga mata ko'y naliligaw.

Sa sikat ng iyong araw,

pag-asa'y unti-unting nalulusaw.

Chorus:

Isipin, limutin.

Bakit di magawang ika'y lisanin?

Pilitin, sabihin mong hanggang dito na lang.

Bridge:
At kung hindi ka na babalik,

aantayin na lang kita sa langit.

Adlib:

Chorus:
Isipin, limutin.

Bakit di magawang ika'y lisanin?

Pilitin, sabihin mong hanggang dito na lang.

Outro:
Hanggang dito.




 
 
Callalily - Hintay :: indexed at Ultimate Guitar.
Hintay tabs @ 911Tabs

About the artist behind Hintay:

Callalily is a Filipino pop-rock band, composed of Kean Cipriano (Vocals), Alden Acosta (Lead Guitar), Tatsi Jamnague (Rhythm Guitar), Aaron Ricafrente (Bass) and Lemuel Belaro (Drums).

Indexed at Wikipedia.

Show us your talent, perform Hintay!

Here you can post a video or audio performance. Tell me more ...
Where can we find your performance? Tell me more ...
Your comment:
Please, log in to post your performance.