Artists by letter: A B C D E F G H I J K L M N O P Q R S T U V W X Y Z 0-9

 
Lie Without A Liar
    ...And you will know us by the Trail of Dead
              - Lie Without a Liar -


[Intro]

e|--------------------------------------------------|
B|--------------------------------------------------|
G|------10-9---------10-9--------10-9-------10-9----|
D|-12----------12-----------12----------12----------|
A|--------------------------------------------------|
E|--------------------------------------------------|

e|--------------------------------------------------|
B|--------------------------------------------------|
G|----------9----------9-----------9----------9-----|
D|-----12---------12----------12---------12---------|
A|-10--------10---------10---------10---------------|
E|--------------------------------------------------|


[Verse]

e|--------------------------------------------------|
B|--------------------------------------------------|
G|------10-9---------10-9--------10-9-------10-9----|
D|-12----------12-----------12----------12----------|
A|--------------------------------------------------|
E|--------------------------------------------------|

e|--------------------------------------------------|
B|--------------------------------------------------|
G|----------9----------9-----------9----------9-----|
D|-----12---------12----------12---------12---------|
A|-10--------10---------10---------10---------------|
E|--------------------------------------------------|

e|--------------------------------------------------|
B|--------------------------------------------------|
G|----------9----------9-----------9----------9-----|
D|-----12---------12----------12---------12---------|
A|-10--------10---------10---------10---------------|
E|--------------------------------------------------|


[Chorus]

e|--------------------------------------------------|
B|--------------------------------------------------|
G|----------8-8-8-8---------------------------------|
D|----------6-6-6-6--7-7-7-7------------------------|
A|-3-3-3-3-----------5-5-5-5--8-8-8-8---------------|
E|-1-1-1-1--------------------6-6-6-6---------------|


[Verse]

e|--------------------------------------------------|
B|--------------------------------------------------|
G|------10-9---------10-9--------10-9-------10-9----|
D|-12----------12-----------12----------12----------|
A|--------------------------------------------------|
E|--------------------------------------------------|

e|--------------------------------------------------|
B|--------------------------------------------------|
G|----------9----------9-----------9----------9-----|
D|-----12---------12----------12---------12---------|
A|-10--------10---------10---------10---------------|
E|--------------------------------------------------|

e|--------------------------------------------------|
B|--------------------------------------------------|
G|----------9----------9-----------9----------9-----|
D|-----12---------12----------12---------12---------|
A|-10--------10---------10---------10---------------|
E|--------------------------------------------------|


[Chorus]

e|--------------------------------------------------|
B|--------------------------------------------------|
G|----------8-8-8-8---------------------------------|
D|----------6-6-6-6--7-7-7-7------------------------|
A|-3-3-3-3-----------5-5-5-5--8-8-8-8---------------|
E|-1-1-1-1--------------------6-6-6-6---------------|


[Bridge]

e|--------------------------------------------------|
B|--------------------------------------------------|
G|----------10---------10----------10----------10---|
D|-----12----------12----------12----------12-------|
A|-10----------8-----------10----------8------------|
E|--------------------------------------------------|

e|--------------------------------------------------|
B|--------------------------------------------------|
G|----------10----------10-----------7--------------|
D|-----12----------12-----------10------------------|
A|-10----------8------------8-----------------------|
E|--------------------------------------------------|

e|--------------------------------------------------|
B|--------------------------------------------------|
G|-7-7-7-7---5-5-5-5-5---7-7-7-7--5-5---12-12-12-12-|
D|-x-x-x-x---x-x-x-x-x---x-x-x-x--x-x---x--x--x--x--|
A|-5-5-5-5---3-3-3-3-3---5-5-5-5--3-3---10-10-10-10-|
E|--------------------------------------------------|

e|--------------------------------------------------|
B|--------------------------------------------------|
G|-19-19-19-19----12-12-12-12----13-13-13-13--------|
D|-x--x--x--x-----x--x--x--x-----x--x--x--x---------|
A|-17-17-17-17----10-10-10-10----12-12-12-12--------|
E|--------------------------------------------------|

e|--------------------------------------------------|
B|-17-17-17-17----20-20-20-20---22-22-22-22---------|
G|-x--x--x--x-----x--x--x--x----x--x--x--x----------|
D|-16-16-16-16----18-18-18-18---20-20-20-20---------|
A|--------------------------------------------------|
E|--------------------------------------------------|


[Outro]

e|--------------------------------------------------|
B|--------------------------------------------------|
G|------10-9---------10-9--------10-9-------10-9----|
D|-12----------12-----------12----------12----------|
A|--------------------------------------------------|
E|--------------------------------------------------|

e|--------------------------------------------------|
B|--------------------------------------------------|
G|----------9----------9-----------9----------9-----|
D|-----12---------12----------12---------12---------|
A|-10--------10---------10---------10---------------|
E|--------------------------------------------------|

e|--------------------------------------------------|
B|--------------------------------------------------|
G|----------9----------9-----------9----------9-----|
D|-----12---------12----------12---------12---------|
A|-10--------10---------10---------10---------------|
E|--------------------------------------------------|


*****************
|x   Dead note
*****************

 
 
...And You Will Know Us by the Trail of Dead - Lie Without A Liar :: indexed at Ultimate Guitar.
Lie Without A Liar tabs @ 911Tabs
People who played ...And You Will Know Us by the Trail of Dead - Lie Without A Liar also played these songs by ...And You Will Know Us by the Trail of Dead:
Luna Park Tab, So Divided Tab, Mark David Chapman Tab, Worlds Apart Tab, Witches Web Chords, It Was There That I Saw You Tab

Quick tip, so you can enjoy Lie Without A Liar even more:

You might want to transpose the song if it is too high or too low for you to sing. Just click the desired option while playing a song and all the chords will automatically be transponded into a new key.

Show us your talent, perform Lie Without A Liar!

Here you can post a video or audio performance. Tell me more ...
Where can we find your performance? Tell me more ...
Your comment:
Please, log in to post your performance.