Artists by letter: A B C D E F G H I J K L M N O P Q R S T U V W X Y Z 0-9

Chandrayan Pidu Chords (ver 2) - Daddy


 
Chandrayan Pidu Chords
[Intro]

E|-----3------3------3-----3-------|-----3------3------3-----3-------|
B|---------------------3-----------|---------------------3-----------|
G|----0------0------0-----0--------|----0------0------0-----0--------|
D|---------------------------------|---------------------------------|
A|---------2------3----------------|---------2------3----------------|
E|--3------------------------------|--3------------------------------|
    G             Cadd9               G             Cadd9       


E|-----3------3------3-----3-------|-----3------3------3-----3-------|
B|---------------------3-----------|---------------------3-----------|
G|----0------0------0-----0--------|----0------0------0-----0--------|
D|---------------------------------|---------------------------------|
A|---------2------3----------------|---------2------3----------------|
E|--3------------------------------|--3------------------------------|
    G             Cadd9               G             Cadd9       
                                                    Sihinen vu vath.......

[Verse 1]

Cadd9      G    Cadd9  G     
Sihinen vu vath na ma  dutuve
Cadd9      G  Cadd9  G         
Maa ge diviye andakaree
Cadd9        Em     C     
Oba gen pera naa ma kisi da
          G        D
Hiru aga beluweee... ee
Cadd9      G  Cadd9    G  
Na maa kisida hiru aga beluwe
Cadd9        G   Cadd9     G        
Pethuman anduree       siravuye
Cadd9      Em       C   
Obage senehen aa...daraye
         G        D 
anthaya lebuweee... ee
Am                         C    
Kandulel diya dahara nethagin nokedi
         G                  D
Gala giyee.. maa..aaa thanivi...
Am                    C           D       D7
Sisiilen muwa wu wasanthe udawu lese eee


[Chorus]

G        Cadd9 G    Cadd9        D
Channndrayan   pidu kiranak sagawaala horen
G        Cadd9 G    Cadd9     D  
Vaaarnawath    kale maage sihine obe naamen
C                        D 
Veguru e kandulel bindu viyeki semin
Em                          G   
Oba gena aa senahasa mudu pawane redi
          C                D  
Sisilak lesin... Sisilak lesin
D7                    G  Cadd9  G Cadd9        
Oba maa hata pubudu kalee....
        

[Verse 2]

Cadd9   G   Cadd9  G                    
Wasanthayai maage  dethole      
Cadd9  G  Cadd9    G  
Sihiwanne Obe muwa hamuvee
Cadd9   Em        C       
Kelambeela semada obageee
        G          D   
Keluman atharee... ee
     Am  
Apa neth getana mohothe
     C                    G           D     
Oba maa sathu wee rahase  Age sithe nisansale
Am                      C 
Raga dei oba desena wadanan
             D       D7
Yahane thaniweee.. ee...


[Chorus]

G        Cadd9 G    Cadd9        D
Channndrayan   pidu kiranak sagawaala horen
G        Cadd9 G    Cadd9     D  
Vaaarnawath    kale maage sihine obe naamen
C                        D 
Veguru e kandulel bindu viyeki semin
Em                          G   
Oba gena aa senahasa mudu pawane redi
          C                D  
Sisilak lesin... Sisilak lesin
D7                    G  Cadd9  G Cadd9        
Oba maa hata pubudu kalee.... ee ...


[Outro]

G  Cadd9  G Cadd9

(Fade away)
 
 
Daddy - Chandrayan Pidu Chords :: indexed at Ultimate Guitar.
Chandrayan Pidu tabs @ 911Tabs
People who played Daddy - Chandrayan Pidu Chords also played these songs by Daddy:
Ai Kale Chords, Chandrayan Pidu Chords, Tiken Tika Chords, Arabiya Chords, Ai Kale, Chandrayan Pidu

Quick tip, so you can enjoy Chandrayan Pidu Chords even more:

After the registration (which takes just 10 seconds, remember?) you will be able to use your profile - your very own piece of YourChords.com.

Show us your talent, perform Chandrayan Pidu Chords!

Here you can post a video or audio performance. Tell me more ...
Where can we find your performance? Tell me more ...
Your comment:
Please, log in to post your performance.