Artists by letter: A B C D E F G H I J K L M N O P Q R S T U V W X Y Z 0-9
 
A World So Cold Tab
Intro

   when passions lost...
D|--------------------------------------------------------------------------|
A|--------------------------------------------------------------------------|
F|--------------------------------------------------------------------------|
C|-10-10-10-10-10-10-10-10-10-10-10-10-9-9-9-9-9-7-7-7-7-7-7-7-7-7-7-9-9-10-|
G|-0--0--0--0--0--0--0--0--0--0--0--0--0-0-0-0-0-0-0-0-0-0-0-0-0-0-0-0-0-0--|
C|--------------------------------------------------------------------------|

D|---------------------------------------------------------------------------|
A|---------------------------------------------------------------------------|
F|---------------------------------------------------------------------------|
C|-10-10-5-5-5-5-5-5-5-5-5-5-5-5-5-5-5-5-5-5-5-5-5-5-5-5-5-5-5-5-5-5-5-7-7-7-|
G|-0--0--3-3-3-3-3-3-3-3-3-3-3-3-3-3-3-0-3-3-3-3-3-3-3-3-3-3-3-3-3-3-3-5-5-5-|
C|-------3-3-3-3-3-3-3-3-3-3-3-3-3-3-3-0-3-3-3-3-3-3-3-3-3-3-3-3-3-3-3-5-5-5-|

D|--------------------------------------------------------------------------|
A|--------------------------------------------------------------------------|
F|--------------------------------------------------------------------------|
C|-7-7-7-7-7----------------------------------------------------------------|
G|-5-5-5-5-5----------------------------------------------------------------|
C|-5-5-5-5-5----------------------------------------------------------------|
    (repete x4 the first time and x2 the 2nd)

Choris
    Fever inside the the storm...
D|---------------------------------------------------------------------------|
A|---------------------------------------------------------------------------|
F|---------------5-5-5-5-4-4-4---------------5-5-5-5-4-4-4-----------------5-|
C|-3-3--3-3--3-3-x-x-x-x-x-x-x-3-3--3-3--3-3-x-x-x-x-x-x-x-0--0-2-3-2-0--0-x-|
G|-3-3--3-3--3-3-3-3-3-3-2-2-2-3-3--3-3--3-3-3-3-3-3-2-2-2-0--0-2-3-2-0--0-3-|
C|-3-3--3-3--3-3---------------3-3--3-3--3-3---------------0--0-2-3-2-0--0---|

D|--------------------------------------------------------------------------|
A|--------------------------------------------------------------------------|
F|-5-5-5--------------------------------------------------------------------|
C|-x-x-x-0--0-2-3-2-0--0-5-5-5-5--------------------------------------------|
G|-3-3-3-0--0-2-3-2-0--0-3-3-3-3--------------------------------------------|
C|-------0--0-2-3-2-0--0----------------------------------------------------|
  (Back to intro)    (Repete x2 the 1st time and x3 the 2nd)

Verse

D|---------------------------------------------------------------------------|
A|---------------------------------------------------------------------------|
F|---------------------------------------------------------------------------|
C|-0-0-0--0--0-0-0-0--3-3-3--3--3-3-3-3--3-3-3-3--5-5-5--5-5-5--5-5-5--5-5-5-|
G|-0-0-0--0--0-0-0-0--3-3-3--3--3-3-3-3--3-3-3-3--3-3-3--3-3-3--3-3-3--3-3-3-|
C|-0-0-0--0--0-0-0-0--3-3-3--3--3-3-3-3--3-3-3-3--3-3-3--3-3-3--3-3-3--3-3-3-|

D|--------------------------------------------------------------------------|
A|--------------------------------------------------------------------------|
F|-----------------------15-15-15-------------------------------------------|
C|-5--10-10-10-12-12-12--12-12-12-10-10-10--10-10-10--12-12-12--------------|
G|-3--8--8--8--10-10-10--10-10-10-8--8--8---8--8--8---10-10-10--------------|
C|-3--8--8--8--10-10-10--10-10-10-8--8--8---8--8--8---10-10-10--------------|
     (repete x5)

Bridge

D|--------------------------------------------------------------------------|
A|--------------------------------------------------------------------------|
F|--------------------------------------------------------------------------|
C|-0/-5/-5-5-7-8-10-12-5-8-3------------------------------------------------|
G|-0/-3/-3-3-5-6-8--10-3-6-5------------------------------------------------|
C|-0/-3/--------------------------------------------------------------------|

verse 2

D|---------------------------------------------------------------------------|
A|---------------------------------------------------------------------------|
F|---------------------------------------------------------------------------|
C|-3-3-3-3-3-3-3-3-3-3-3-3-3-3-3-3-7-7-7-7-7-7-7-7-7-7-7-7-7-7-7-7-3-3-3-3-3-|
G|-3-3-3-3-3-3-3-3-3-3-3-3-3-3-3-3-7-7-7-7-7-7-7-7-7-7-7-7-7-7-7-7-3-3-3-3-3-|
C|-3-3-3-3-3-3-3-3-3-3-3-3-3-3-3-3-7-7-7-7-7-7-7-7-7-7-7-7-7-7-7-7-3-3-3-3-3-|

D|--------------------------------------------------------------------------|
A|--------------------------------------------------------------------------|
F|--------------------------------------------------------------------------|
C|-3-3-3-3-3-3-3-3-3-3-3-7-7-7-9-7-9-7-7-9/0--------------------------------|
G|-3-3-3-3-3-3-3-3-3-3-3-7-7-7-7-7-7-7-7-0----------------------------------|
C|-3-3-3-3-3-3-3-3-3-3-3-7-7-7-7-7-7-7-7-0----------------------------------|
    (repete x3)

verse 2

D|--------------------------------------------------------------------------|
A|--------------------------------------------------------------------------|
F|--------------------------------------------------------------------------|
C|-3-3-3--3--3-3-3-3--3-3-3-3-7-7-7--7--7-7-7-7--7-7-7-7-9-9/0--------------|
G|-3-3-3--3--3-3-3-3--3-3-3-3-7-7-7--7--7-7-7-7--7-7-7-7-0-0----------------|
C|-3-3-3--3--3-3-3-3--3-3-3-3-7-7-7--7--7-7-7-7--7-7-7-7-0-0----------------|
   (repete x5)

i havent gotten the bridge exact yet but its pretty close.

 
 
Mudvayne - A World So Cold Tab :: indexed at Ultimate Guitar.
A World So Cold tabs @ 911Tabs
People who played Mudvayne - A World So Cold Tab also played these songs by Mudvayne:
Never Enough Tab, Dead Inside Tab, Happy Chords, Do What You Do Tab, Scarlet Letters Tab, Forget To Remember Chords

About the artist behind A World So Cold Tab:

Mudvayne is an American rock band from Peoria, Illinois formed in 1996. The band comprises founder, and frontman Chad Gray, guitarist Greg Tribbett, bassist Ryan Martinie and drummer Matthew McDonough. Signed onto Epic Records, Mudvayne has released three studio albums, two compilations, two DVDs, and are working on a new studio album.

Mudvayne rose to fame in 2000 with their debut album L.D. 50, which peaked at number 85 on the Billboard 200, and has since been certified gold by the RIAA. The lead single from the album, "Dig", won the MTV2 Award at the MTV Video Music Awards in 2001. This was also the first time the award was ever presented. In 2006 Mudvayne was nominated for Best Metal Performance at the Grammy Awards for the single "Determined" from the band's 2005 studio album Lost and Found. Mudvayne has five gold certifications by the RIAA, and has sold nearly two million albums in the United States.

Indexed at Wikipedia.

Show us your talent, perform A World So Cold Tab!

Here you can post a video or audio performance. Tell me more ...
Where can we find your performance? Tell me more ...
Your comment:
Please, log in to post your performance.