Artists by letter: A B C D E F G H I J K L M N O P Q R S T U V W X Y Z 0-9

 
Uranio Em Nos Tab
Tabbed by: antichris666
Tuning: C standard


[Intro]

e|-------------------------------------------------------------------------|
B|-------------------------------------------------------------------------|
G|-------------------------------------------------------------------------|
D|-------------------------------------------------------------------------|
A|-------------------------------------------------------------------------|
E|-1-1-1-1-1-1-2-2-2-2-2-2-3-3-3-3-3-3-1-1-1-1-1-1-2-2-2-2-2-2-3-3-3-3-3-3-|

e|-------------------------------------------------------------------------|
B|-------------------------------------------------------------------------|
G|-------------------------------------------------------------------------|
D|-------------------------------------------------------------------------|
A|-------------------------------------------------------------------------|
E|-1-1-1-1-1-1-2-2-2-2-2-2-3-3-3-3-3-3-1-1-1-1-1-1-2-2-2-2-2-2-3-3-3-3-3-3-|


[Verse]

e|-------------------------------------------------------------------------------------------------|
B|-------------------------------------------------------------------------------------------------|
G|-------------------------------------------------------------------------------------------------|
D|-------------------------------------------------------------------------------------------------|
A|-2-----------4-----------3-----------2-----------2-----------4-----------3-----------2-----------|
E|-0-0-0-0-0-0-2-0-0-0-0-0-1-0-0-0-0-0-0-0-0-0-0-0-0-0-0-0-0-0-2-0-0-0-0-0-1-0-0-0-0-0-0-0-0-0-0-0-|
     . . . . .   . . . . .   . . . . .   . . . . .   . . . . .   . . . . .   . . . . .   . . . . .

e|-------------------------------------------------------------------------------------------------|
B|-------------------------------------------------------------------------------------------------|
G|-------------------------------------------------------------------------------------------------|
D|-------------------------------------------------------------------------------------------------|
A|-2-----------4-----------3-----------2-----------2-----------4-----------3-----------2-----------|
E|-0-0-0-0-0-0-2-0-0-0-0-0-1-0-0-0-0-0-0-0-0-0-0-0-0-0-0-0-0-0-2-0-0-0-0-0-1-0-0-0-0-0-0-0-0-0-0-0-|
     . . . . .   . . . . .   . . . . .   . . . . .   . . . . .   . . . . .   . . . . .   . . . . .


e|-------------------------------------------------------------------------|
B|-------------------------------------------------------------------------|
G|-------------------------------------------------------------------------|
D|-------------------------------------------------------------------------|
A|-------------------------------------------------------------------------|
E|-1-1-1-1-1-1-2-2-2-2-2-2-3-3-3-3-3-3-1-1-1-1-1-1-2-2-2-2-2-2-3-3-3-3-3-3-|

e|-------------------------------------------------------------------------|
B|-------------------------------------------------------------------------|
G|-------------------------------------------------------------------------|
D|-------------------------------------------------------------------------|
A|-------------------------------------------------------------------------|
E|-1-1-1-1-1-1-2-2-2-2-2-2-3-3-3-3-3-3-1-1-1-1-1-1-2-2-2-2-2-2-3-3-3-3-3-3-|


[Chorus]

e|------------------------------------------------------------------------------------------------------|
B|------------------------------------------------------------------------------------------------------|
G|------------------------------------------------------------------------------------------------------|
D|------------------------------------------------------------------------------------------------------|
A|---------------5-4-----------4-3-------------3---3----------------5-4-----------4-3-------------3---3-|
E|-0-0--0-0-0-0--3-2--0-0-0-0--2-1--0-0-0-0-0--1-0-1--0-0--0-0-0-0--3-2--0-0-0-0--2-1--0-0-0-0-0--1-0-1-|
   . .  . . . .       . . . .       . . . . .    .    . .  . . . .       . . . .       . . . . .    .

e|--------------------------------------------------------------------------------------------------------|
B|--------------------------------------------------------------------------------------------------------|
G|--------------------------------------------------------------------------------------------------------|
D|--------------------------------------------------------------------------------------------------------|
A|---------------5-4-----------4-3-------------3---3----------------5-4-----------4-3-------------3---3--2|
E|-0-0--0-0-0-0--3-2--0-0-0-0--2-1--0-0-0-0-0--1-0-1--0-0--0-0-0-0--3-2--0-0-0-0--2-1--0-0-0-0-0--1-0-1--0|
   . .  . . . .       . . . .       . . . . .    .    . .  . . . .       . . . .       . . . . .    .
  

e|---------------------------------------------------------------------------------|
B|---------------------------------------------------------------------------------|
G|---------------------------------------------------------------------------------|
D|---------------------2-2-2-2-2-2-2-2-2-2---------------------3-3-3-3-3-3-3-3-3-3-|
A|---------------------------------------------------------------------------------|
E|-0-0-0-0-0-0-0-0-0-0---------------------0-0-0-0-0-0-0-0-0-0---------------------|

e|-------------------------------------------------------------------------------------------------|
B|-------------------------------------------------------------------------------------------------|
G|---------------------------------------------------------------------------------2-2-1-1---------|
D|---------------------2-2-2-2-2-2-2-2-2-2---------------------1-1-1-1-3-3-3-3-3-3---------2-2-1-1-|
A|-------------------------------------------------------------------------------------------------|
E|-0-0-0-0-0-0-0-0-0-0---------------------0-0-0-0-0-0-0-0-0-0-------------------------------------|


e|---------------------------------------------------------------------------------|
B|---------------------------------------------------------------------------------|
G|---------------------------------------------------------------------------------|
D|---------------------2-2-2-2-2-2-2-2-2-2---------------------3-3-3-3-3-3-3-3-3-3-|
A|---------------------------------------------------------------------------------|
E|-0-0-0-0-0-0-0-0-0-0---------------------0-0-0-0-0-0-0-0-0-0---------------------|

e|-------------------------------------------------------------------------------------------------|
B|-------------------------------------------------------------------------------------------------|
G|---------------------------------------------------------------------------------2-2-1-1---------|
D|---------------------2-2-2-2-2-2-2-2-2-2---------------------1-1-1-1-3-3-3-3-3-3---------2-2-1-1-|
A|-------------------------------------------------------------------------------------------------|
E|-0-0-0-0-0-0-0-0-0-0---------------------0-0-0-0-0-0-0-0-0-0-------------------------------------|


[Chorus]

e|------------------------------------------------------------------------------------------------------|
B|------------------------------------------------------------------------------------------------------|
G|------------------------------------------------------------------------------------------------------|
D|------------------------------------------------------------------------------------------------------|
A|---------------5-4-----------4-3-------------3---3----------------5-4-----------4-3-------------3---3-|
E|-0-0--0-0-0-0--3-2--0-0-0-0--2-1--0-0-0-0-0--1-0-1--0-0--0-0-0-0--3-2--0-0-0-0--2-1--0-0-0-0-0--1-0-1-|
   . .  . . . .       . . . .       . . . . .    .    . .  . . . .       . . . .       . . . . .    .

e|------------------------------------------------------------------------------------------------------|
B|------------------------------------------------------------------------------------------------------|
G|------------------------------------------------------------------------------------------------------|
D|------------------------------------------------------------------------------------------------------|
A|---------------5-4-----------4-3-------------3---3----------------5-4-----------4-3-------------3---3-|
E|-0-0--0-0-0-0--3-2--0-0-0-0--2-1--0-0-0-0-0--1-0-1--0-0--0-0-0-0--3-2--0-0-0-0--2-1--0-0-0-0-0--1-0-1-|
   . .  . . . .       . . . .       . . . . .    .    . .  . . . .       . . . .       . . . . .    .
  

e|------------------------------------------------------------------|
B|------------------------------------------------------------------|
G|------------------------------------------------------------------|
D|------------------------------------------------------------------|
A|---------------------------3---3----------------------------3---3-|
E|-0-0-0-0--0-0-0--0-0-0--0--1-0-1--0-0-0-0--0-0-0--0-0-0--0--1-0-1-|
   . . . .  . . .  . . .  .    .    . . . .  . . .  . . .  .    .

e|------------------------------------------------------------------|
B|------------------------------------------------------------------|
G|------------------------------------------------------------------|
D|------------------------------------------------------------------|
A|---------------------------3---3----------------------------3---3-|
E|-0-0-0-0--0-0-0--0-0-0--0--1-0-1--0-0-0-0--0-0-0--0-0-0--0--1-0-1-|
   . . . .  . . .  . . .  .    .    . . . .  . . .  . . .  .    .


e|---------------------------------------------------------------------------------|
B|---------------------------------------------------------------------------------|
G|---------------------------------------------------------------------------------|
D|---------------------2-2-2-2-2-2-2-2-2-2---------------------3-3-3-3-3-3-3-3-3-3-|
A|---------------------------------------------------------------------------------|
E|-0-0-0-0-0-0-0-0-0-0---------------------0-0-0-0-0-0-0-0-0-0---------------------|

e|-------------------------------------------------------------------------------------------------|
B|-------------------------------------------------------------------------------------------------|
G|---------------------------------------------------------------------------------2-2-1-1---------|
D|---------------------2-2-2-2-2-2-2-2-2-2---------------------1-1-1-1-3-3-3-3-3-3---------2-2-1-1-|
A|-------------------------------------------------------------------------------------------------|
E|-0-0-0-0-0-0-0-0-0-0---------------------0-0-0-0-0-0-0-0-0-0-------------------------------------|


e|---------------------------------------------------------------------------------|
B|---------------------------------------------------------------------------------|
G|---------------------------------------------------------------------------------|
D|---------------------2-2-2-2-2-2-2-2-2-2---------------------3-3-3-3-3-3-3-3-3-3-|
A|---------------------------------------------------------------------------------|
E|-0-0-0-0-0-0-0-0-0-0---------------------0-0-0-0-0-0-0-0-0-0---------------------|

e|---------------------------------------------------------------------------------|
B|---------------------------------------------------------------------------------|
G|---------------------------------------------------------------------------------|
D|---------------------2-2-2-2-2-2-2-2-2-2---------------------1-1-1-1-3-3-3-3-3-3-|
A|---------------------------------------------------------------------------------|
E|-0-0-0-0-0-0-0-0-0-0---------------------0-0-0-0-0-0-0-0-0-0---------------------|

e|-----------------------------------------------------------------------------------------|
B|-----------------------------------------------------------------------------------------|
G|-2-2-2-2-1-1-1-1-------------------------------------------------------------------------|
D|-----------------2-2-2-2-1-1-1-1-3-3-3-3-1-1-1-1-----------------------------------------|
A|-------------------------------------------------3-3-3-3-2-2-2-2-1-1-1-1-0-0-0-0--2----2-|
E|----------------------------------------------------------------------------------0----0-|
 

************************************

| .   Palm mute

************************************
 
 
Nervosa - Uranio Em Nos Tab :: indexed at Ultimate Guitar.
Uranio Em Nos tabs @ 911Tabs
People who played Nervosa - Uranio Em Nos Tab also played these songs by Nervosa:
Death Tab, Cyberwar Tab, Guerra Santa Tab, Envious Tab, Death Tab, Death

Quick tip, so you can enjoy Uranio Em Nos Tab even more:

Try out the AutoScroller option ... It scrolls the page for you, so you can totally focus on nailing that solo. You can choose among different speeds using your mouse or your keyboard (keys 0, 1, 2 and 3).

Show us your talent, perform Uranio Em Nos Tab!

Here you can post a video or audio performance. Tell me more ...
Where can we find your performance? Tell me more ...
Your comment:
Please, log in to post your performance.