Artists by letter: A B C D E F G H I J K L M N O P Q R S T U V W X Y Z 0-9

 
Weed Demon Tab
Here are the five simple chords used:

   Ab    C#m   Amaj7  A9    E
e|--4-----4-----0-----0-----0---|
B|--4-----5-----2-----0-----0---|
G|--5-----6-----1-----1-----1---|
D|--6-----6-----2-----2-----2---|
A|--6-----4-----0-----0-----2---|
E|--4-----x-----x-----x-----0---|


[Verse]         

e|--4-----4-----0-----0-----0---|
B|--4-----5-----2-----0-----0---|
G|--5-----6-----1-----1-----1---|  x4
D|--6-----6-----2-----2-----2---|  
A|--6-----4-----0-----0-----2---|
E|--4-----x-----x-----x-----0---|

The switch to A9 from Amaj7 is very brief, right before you switch to the E. Just listen carefully
a couple times and you'll get it. The same thing happens in the chorus.
then the "who are ya?" part (Chorus):


[Chorus]

e|------0-----0-----0------|               
B|------2-----0-----0------|
G|------1-----1-----1------|  x4       
D|------2-----2-----2------|
A|------0-----0-----2------|
E|------x-----x-----0------|

to the second verse:


[Verse]

e|--4-----4-----0-----0-----0---|
B|--4-----5-----2-----0-----0---|
G|--5-----6-----1-----1-----1---| x4
D|--6-----6-----2-----2-----2---|
A|--6-----4-----0-----0-----2---|
E|--4-----x-----x-----x-----0---|


[Chorus]

e|------0-----0-----0------|               
B|------2-----0-----0------|
G|------1-----1-----1------|  x9       
D|------2-----2-----2------|
A|------0-----0-----2------|
E|------x-----x-----0------|


[Outro]

e|--4-----4-----0-----0-----0---|
B|--4-----5-----2-----0-----0---|
G|--5-----6-----1-----1-----1---| x5
D|--6-----6-----2-----2-----2---|
A|--6-----4-----0-----0-----2---|
E|--4-----x-----x-----x-----0---|



************************************

| x  Dead note

************************************
 
 
Wavves - Weed Demon Tab :: indexed at Ultimate Guitar.
Weed Demon tabs @ 911Tabs
People who played Wavves - Weed Demon Tab also played these songs by Wavves:
So Bored Tab, No Hope Kids Tab, Weed Demon Tab, Post Acid Tab, Green Eyes Chords, To The Dregs Tab

Quick tip, so you can enjoy Weed Demon Tab even more:

If you don't really know how to deal with "Absus4" chord and his equally confusing brothers, just put the mouse cursor over them and you will be shown a helpful chord diagram.

Show us your talent, perform Weed Demon Tab!

Here you can post a video or audio performance. Tell me more ...
Where can we find your performance? Tell me more ...
Your comment:
Please, log in to post your performance.