Artists by letter: A B C D E F G H I J K L M N O P Q R S T U V W X Y Z 0-9

 
Short Movie Tab
Tuning DADF#AD. No capo.

I've put a cover verion on youtube if you want to check it out, though i play some parts slightly different.
https://www.youtube.com/watch?v=J4sd16_8c6U



[Intro]

there are other notes picked both here and in the verse, but i've just tabbed the melody notes. 
it's easy to get an approximate sound from listening to the song.

D |-9-7-9-7-----------------------0-------|   
A |--------9--7h9-9-10-9-7-9-7----0-------|   
F#|----------------------------10-0-------|   
D |-------------------------------0-------|   
A |---------------------------------------|                  
D |---------------------------------------|

D |-2-----4-----9-----------9-7-9-7---------0---------------|
A |-4-----5-----10------------------9-7-9---0---------------|  (finger pick the chords)
F#|-3-----5-----10------------------------8-0---------------|
D |-0-----0-----0---------------------------0---------------|
A |---------------------------------------------------------|
D |---------------------------------------------------------|
  

[Verse 1]

D |-9-7-9-7-----------------0----2-----4-----9---------------9-7-9-7-----------0---------------|
A |---------9---10-9-10-9---0----4-----5-----10----------------------9-7-9-----0---------------|
F#|-----------------------8-0----3-----5-----10----------------------------8---0---------------|
D |-------------------------0----0-----0-----10--------------------------------0---------------|
A |--------------------------------------------------------------------------------------------|
D |--------------------------------------------------------------------------------------------| X4
   I am paying for my own mistake, that's ok.               I don't mind a little pain.
   It's a short fucking movie man, I know.                  I won't try and take it slow.
   Bottled water, called a drought, come on.                What's that about?
   Keep me sick to make me well, come on.                   What the hell?

OR, when live laura strums the verses and plays the first part like this:

D |-0-------0-------0-------0-------|
A |-0-------0-------0-------0-------|
F#|-0-------0-------0-------0-------|
D |-0-------0-------0-------0-------|
A |-5-------0-------5-------0-------|
D |-5-------0-------5-------0-------|
   I am paying for my own mistake etc.


[Interlude]

D |-0---------------0-------0-------0-------0-------| strum as you like from now on
A |-0---------------0-------0-------0-------0-------|
F#|-0---------------0-------0-------0-------0-------|
D |-0---------------0-------0-------0-------0-------|
A |-0---------------5-------0-------5-------0-------|
D |-0---------------5-------0-------5-------0-------|


[Verse 2]

D |-0---0---0---0-0---0-0---0---0---0---0-0---0-0---0---|
A |-0---0---0---0-0---0-0---0---0---0---0-0---0-0---0---|   
F#|-0---0---0---0-0---0-0---0---0---0---0-0---0-0---0---|   
D |-0---0---0---0-0---0-0---0---0---0---0-0---0-0---0---|
A |-0---4---5---4-7---5-4---0---4---5---4-7---5-4---0---|
D |-0---0---0---0-0---0-0---0---0---0---0-0---0-0---0---|
  I got up in the world today, wondered who it was I could save


D |-0-----------0---0---------------0-----------0---0---------------|
A |-0-----------0---0---------------0-----------0---0---------------|
F#|-0-----------0---0---------------0-----------0---0---------------|
D |-0-----------0---0---------------0-----------0---0---------------|
A |-2-----------9---7---------------2-----------9---7---------------|
D |-2-----------9---7---------------2-----------9---7---------------|      
  Who do you think you are?  just a girl that can play guitar


D |-0---0---0---0-0---0-0---0---0---0---0-0---0-0---0---|
A |-0---0---0---0-0---0-0---0---0---0---0-0---0-0---0---|   
F#|-0---0---0---0-0---0-0---0---0---0---0-0---0-0---0---|   
D |-0---0---0---0-0---0-0---0---0---0---0-0---0-0---0---|
A |-0---4---5---4-7---5-4---0---4---5---4-7---5-4---0---|
D |-0---0---0---0-0---0-0---0---0---0---0-0---0-0---0---|
   I think I could get away with saying only half what i say


D |-0-----------0---0---------------0-----------0---0---------------|
A |-0-----------0---0---------------0-----------0---0---------------|
F#|-0-----------0---0---------------0-----------0---0---------------|
D |-0-----------0---0---------------0-----------0---0---------------|
A |-2-----------9---7---------------2-----------9---7---------------|
D |-2-----------9---7---------------2-----------9---7---------------|      
   No, I can't give you up. oh no,        I'm not gonna stop
 

[Chorus]

D |-0---------------0---------------0---------------0---------------|
A |-0---------------0---------------0---------------0---------------|
F#|-0---------------0---------------0---------------0---------------| 
D |-0---------------0---------------0---------------0---------------| 
A |-5---------------0---------------5---------------0---------------|
D |-5---------------0---------------5---------------0---------------| 
 they know but they dont know why. they know but they'll never know why.


[Interlude]

D |-0---------------| 
A |-0---------------|
F#|-0---------------|
D |-0---------------|
A |-0---------------|
D |-0---------------|


[Verse 3]

D |-0---0---0---0-0---0-0---0---0---0---0-0---0-0---0---|
A |-0---0---0---0-0---0-0---0---0---0---0-0---0-0---0---|   
F#|-0---0---0---0-0---0-0---0---0---0---0-0---0-0---0---|   
D |-0---0---0---0-0---0-0---0---0---0---0-0---0-0---0---|
A |-0---4---5---4-7---5-4---0---4---5---4-7---5-4---0---|
D |-0---0---0---0-0---0-0---0---0---0---0-0---0-0---0---|
  I don't know what         we're afraid of now


D |-0-----------0---0---------------0-----------0---0---------------|
A |-0-----------0---0---------------0-----------0---0---------------|
F#|-0-----------0---0---------------0-----------0---0---------------|
D |-0-----------0---0---------------0-----------0---0---------------|
A |-2-----------9---7---------------2-----------9---7---------------|
D |-2-----------9---7---------------2-----------9---7---------------|      
    I don't mind                       I don't mind


D |-0---0---0---0-0---0-0---0---0---0---0-0---0-0---0---|
A |-0---0---0---0-0---0-0---0---0---0---0-0---0-0---0---|   
F#|-0---0---0---0-0---0-0---0---0---0---0-0---0-0---0---|   
D |-0---0---0---0-0---0-0---0---0---0---0-0---0-0---0---|
A |-0---4---5---4-7---5-4---0---4---5---4-7---5-4---0---|
D |-0---0---0---0-0---0-0---0---0---0---0-0---0-0---0---|
  If I fall in love        to the sound of birds


D |-0-----------0---0---------------0-----------0---0---------------|
A |-0-----------0---0---------------0-----------0---0---------------|
F#|-0-----------0---0---------------0-----------0---0---------------|
D |-0-----------0---0---------------0-----------0---0---------------|
A |-2-----------9---7---------------2-----------9---7---------------|
D |-2-----------9---7---------------2-----------9---7---------------|      
              on the wing    and kiss         I'm laughing.


[Chorus]

D |-0---------------0---------------0---------------0---------------|
A |-0---------------0---------------0---------------0---------------|
F#|-0---------------0---------------0---------------0---------------| 
D |-0---------------0---------------0---------------0---------------| 
A |-5---------------0---------------5---------------0---------------|
D |-5---------------0---------------5---------------0---------------| 
 they know but they dont know why. they know but they'll never know why.

D |-0---------------0-------0-------0---------------0-------0-------|
A |-0---------------0-------0-------0---------------0-------0-------|
F#|-0---------------0-------0-------0---------------0-------0-------| 
D |-0---------------0-------0-------0---------------0-------0-------| 
A |-5---------------4-------0-------5---------------4-------0-------|
D |-5---------------0-------0-------5---------------0-------0-------|
  They know that I love you but they'll never know why, they know that I love you but they'll never know why.


D |-2-----4-----9-------------------2-----4-----9-------------------|
A |-4-----5-----10------------------4-----5-----10------------------|
F#|-3-----5-----10------------------3-----5-----10------------------|
D |-0-----0-----0-------------------0-----0-----0-------------------|
A |-----------------------------------------------------------------|
D |-----------------------------------------------------------------|
  It's kicking off                it's kicking off.


[Verse 4]

D |-9-7-9-7-----------------0-----|
A |---------9---10-9-10-9---0-----|
F#|-----------------------8-0-----|
D |-------------------------0-----|
A |-------------------------------|
D |-------------------------------|
  It' a short fucking movie man    X3

D |-2-----4-----9---------------9-7-9-7-----------0---------------|
A |-4-----5-----10----------------------9-7-9-----0---------------|
F#|-3-----5-----10----------------------------8---0---------------|
D |-0-----0-----10--------------------------------0---------------|
A |---------------------------------------------------------------|
D |---------------------------------------------------------------|
  I know                       I won't try and take it slow        X2

D |-0---------------|
A |-0---------------|
F#|-0---------------|
D |-0---------------|
A |-0---------------|
D |-0---------------|
 
 
Laura Marling - Short Movie Tab :: indexed at Ultimate Guitar.
Short Movie tabs @ 911Tabs

About the artist behind Short Movie Tab:

Laura Beatrice Marling (born 1 February 1990), is a folk-pop singer-songwriter from Reading, Berkshire, England.

Marling has toured with a number of well-known indie artists in the UK including Jamie T, who personally invited her on tour with him last year after he attended her second-ever gig.

She performed at the 2007 O2 Wireless Festival and also performed at the first Underage Music Festival in August 2007 at Victoria Park, East London.

Her debut single came out on WayOutWest Records, with a new single coming out soon on Virgin Records. She appeared on The Rakes track "Suspicious Eyes", from the band's second album Ten New Messages and Mystery Jets track "Young Love" released 10 March, 2008.[1] from their second album. She often collaborates with indie band Noah and the Whale, and Charlie Fink, lead singer of Noah and the Whale, produced her debut album Alas, I Cannot Swim.[2]

She recently appeared on Later with Jools Holland where she performed the song "New Romantic". Marling's debut album Alas, I Cannot Swim was released on February 4, 2008.

Despite playing sold-out venues over the past few months, Laura has spoken of how she still finds larger venues scary.[3]

Marling was once refused access to one of her own performances, for being underage. She instead chose to perform on the street.[4]

She is currently the supporting artist at the Adam Green concerts in Europe and in New York.[1][2]

Indexed at Wikipedia.

Show us your talent, perform Short Movie Tab!

Here you can post a video or audio performance. Tell me more ...
Where can we find your performance? Tell me more ...
Your comment:
Please, log in to post your performance.