Artists by letter: A B C D E F G H I J K L M N O P Q R S T U V W X Y Z 0-9

 
All My Rage Tab
You can watch the music video here for rhythm:
https://www.youtube.com/watch?v=zR-AOZfLh7w

This live recording is also helpful (a lot of great shots close up on the guitar):
https://www.youtube.com/watch?v=ms0PyV1V8CA
-----------------------------------------------------------------------------------------------
Credit for 99% of the original tab goes to Priscilla and Ashley! I modified the tab to match what
Marling plays.
------------------------------------------------------------------------------------------------
Tuning: CGCCGE [EADGBE](All strings are tuned down except for the high E string)
-------------------------------------------------------------------------------------------------

Intro and Verses

E---0-0---0-0--0---0-0----0--0-0--|
G---0-0---0-0--0---0-0----0--0-0--|
C---0-0---0-0--0---0-0----0--0-0--|
C---2/4---4-2--0---5/7----7--5-0--|
G---0-0---0-0--0---0-0----0--0-0--|
C---0-0---0-0--0---0-0----0--0-0--|


E-0--0------0---0---0----0---0---0----0----|
G-0--0------0---0---0----0---0---0----0----|
C-0--0------0---0---0----0---0---0----0----|
C-9/12-----12---9---7----7---5---4----2----|
G-0--0------0---0---0----0---0---0----0----|
C-0--0------0---0---0----0---0---0----0----|


E-----0-0---0---0-0-0--------|
G-----0-0---0---0-0-0--------|
C-----0-0---0---0-0-0--------|
C-----0-0---0---0-0-0--------|
G-----2/5---5---5/2/5--------|
C-----0-0---0---0-0-0--------|

----------------------------------------------------------

Chorus

E-0-0----0----0----0-----------|
G-0-0----0----0----0-----------|
C-0-0----0----0----0-----------|
C-0-0----0----0----0-----------|
G-2/5----4----2----0-----------|
C-0-0----0----0----0-----------|

 "All my rage been gone...." x2



E--0-0-------0-----------0-----------0-------0--------0-----------0-----------0-------|
G--0-0-------0-----------0-----------0-------0--------0-----------0-----------0-------|
C--0-0-------0-----------0-----------0-------0--------0-----------0-----------0-------|
C--0-0-------0-----------0-----------0-------0--------0-----------0-----------0-------|
G--2/5-------4-----------5-----------4-------5--------4-----------5-----------4-------|
C--0-0-------0-----------0-----------0-------0--------0-----------0-----------0-------|

 "I leave my rage to the sea and the sun...I leave my rage to the sea and the sun..."

End the song by playing the 'Intro and Verses' section once through, but end on the first slide
from the 3rd bar.

Enjoy!


 
 
Laura Marling - All My Rage Tab :: indexed at Ultimate Guitar.
All My Rage tabs @ 911Tabs

About the artist behind All My Rage Tab:

Laura Beatrice Marling (born 1 February 1990), is a folk-pop singer-songwriter from Reading, Berkshire, England.

Marling has toured with a number of well-known indie artists in the UK including Jamie T, who personally invited her on tour with him last year after he attended her second-ever gig.

She performed at the 2007 O2 Wireless Festival and also performed at the first Underage Music Festival in August 2007 at Victoria Park, East London.

Her debut single came out on WayOutWest Records, with a new single coming out soon on Virgin Records. She appeared on The Rakes track "Suspicious Eyes", from the band's second album Ten New Messages and Mystery Jets track "Young Love" released 10 March, 2008.[1] from their second album. She often collaborates with indie band Noah and the Whale, and Charlie Fink, lead singer of Noah and the Whale, produced her debut album Alas, I Cannot Swim.[2]

She recently appeared on Later with Jools Holland where she performed the song "New Romantic". Marling's debut album Alas, I Cannot Swim was released on February 4, 2008.

Despite playing sold-out venues over the past few months, Laura has spoken of how she still finds larger venues scary.[3]

Marling was once refused access to one of her own performances, for being underage. She instead chose to perform on the street.[4]

She is currently the supporting artist at the Adam Green concerts in Europe and in New York.[1][2]

Indexed at Wikipedia.

Show us your talent, perform All My Rage Tab!

Here you can post a video or audio performance. Tell me more ...
Where can we find your performance? Tell me more ...
Your comment:
Please, log in to post your performance.