Artists by letter: A B C D E F G H I J K L M N O P Q R S T U V W X Y Z 0-9

I Wish I Could Fly Like Superman Tab - Kinks

 
I Wish I Could Fly Like Superman Tab
-------------------------------------------------------------------------------
			     I Wish I Could Fly Like (Superman) - Kinks
-------------------------------------------------------------------------------
Tabbed by:Mannin'
Email:zedgez@hotmail.com
My first tabbed song, go easy on it, message me if im wrong which i probably am, its a 
song and it wasnt tabbed. go easy on it.

Tuning:Standard E
Intro
e|---------------------------------------------------------------------------|
B|---------------------------------------------------------------------------|
G|---12----------12-------12-----12~~----------------------------------------|
D|---12h14-14-14-12-14-14-12-14-14-14--14-14-------------------Let-Ring------|
A|------------------------------------/12-12---14-14-14--9-9-10=========-----|
E|--------------------------------------------/12-12-12-7-7--9--------------|

e|---------------------------------------------------------------------------|
B|---------------------------------------------------------------------------|
G|---3-------3-----3----3~~--------------------------------------------------|
D|---3h5-5-5-3-5-5-3-5-5-5------------------------------Let-Ring-------------|
A|----------------------------/12-12---14-14-14--9-9-10=========-------------|
E|------------------------------------/12-12-12-7-7--9---------------------||
Short break


The next bit is played behind the singing, listen for the timing
e|---------------------------------------------------------------------------|
B|---------------------------------------------------------------------------|
G|---12----------12-------12-----12~~----------------------------------------|
D|---12h14-14-14-12-14-14-12-14-14-14----------------------Let-Ring----------|
A|--------------------------------------9-9-9-9-9/10-1010-10=======----------|
E|--------------------------------------7-7-7-7-7/9--9-9--9------------------|
next part x2
e|---------------------------------------------------------------------------|
B|---------------------------------------------------------------------------|
G|--2-Let-Ring-2-/-9--9--4-4-/-6--Let-Ring----------------------------------|
D|--2----------2-/-9--9--4-4-/-6--------------------------------------------|
A|--0----------0-/-7--7--2-2-/-4--------------------------------------------|
E|---------------------------------------------------------------------------|
Rest Coming Soon........

| /  slide up
|   slide down
| h  hammer-on
| p  pull-off
| ~  vibrato
| +  harmonic
| x  Mute note
===============================================================================

Tablature player for this song:
 
 
Kinks - I Wish I Could Fly Like Superman Tab :: indexed at Ultimate Guitar.
I Wish I Could Fly Like Superman tabs @ 911Tabs

About the artist behind I Wish I Could Fly Like Superman Tab:

The Kinks were an English pop/rock group formed in 1963, and categorised as a British Invasion band, along with the other members of the so-called Big Four (The Beatles, The Rolling Stones and The Who). Despite being less commercially successful than these three contemporaries, mostly because of a four-year ban from the United States in the mid-to-late 1960s, the Kinks are cited among them as one of the most important and influential rock bands of all time and have 12 top 40 hits in America.[1]

The band's early hard-driving singles set a standard in the mid-1960s for rock and roll, while albums such as Face to Face,[2] Something Else, The Kinks Are the Village Green Preservation Society, Arthur and Muswell Hillbillies are highly regarded by fans, critics, and peers, and are considered amongst the most influential recordings of the era.[3]

Indexed at Wikipedia.

Show us your talent, perform I Wish I Could Fly Like Superman Tab!

Here you can post a video or audio performance. Tell me more ...
Where can we find your performance? Tell me more ...
Your comment:
Please, log in to post your performance.