Artists by letter: A B C D E F G H I J K L M N O P Q R S T U V W X Y Z 0-9
 
Breezin Tab
George Benson
Breezin

Intro

key signture 3/4
      Dmaj9           Fmaj9       Amaj9      Fmaj9     Dmaj9
E-----------------|-----3------|----7-----|----3----|------------------------|
B-----5-----------|-----1------|----5-----|----1----|----5-------------------|
G-----6-----------|-----2------|----6-----|----2----|----6-------------------|
D-----4-----------|-----2------|----6-----|----2----|----4-------------------|
A-----5-----------|------------|----0-----|---------|----5-------------------|
E-----------------|-----1------|----------|----1----|------------------------|

Bass Intro

G-----------------------------------------------------------------|
D-------------------2----4----------------2------2---4--5---------|
A-------5-------5------------2----------------2-------------0-----|
E-----------5-----------------------------------------------------|


0:31
E---12--12--12--12--12--12--12--12----10--14-14-14-14-14-14-14-14--12-|
B---14--14--14--14--14--14--14--14----12--15-15-15-15-15-15-15-15--14-|
G---------------------------------------------------------------------|
D---------------------------------------------------------------------|
A---------------------------------------------------------------------|
E---------------------------------------------------------------------|

repeat 6x on last time end with....1:03
E----14---10---14--------------------------------------------|
B----15---12---15--------------------------------------------|
G------------------------------------------------------------|
D------------------------------------------------------------|
A------------------------------------------------------------|
E------------------------------------------------------------|

Verse melody(eletric)1:05 (guitar two)
E-------------------------------------------------------------------------------------|
B----------------------------------10(h)12(P)10----10(h)12(p)10-----------------------|
G-------------------9--11---12-------------------------------------9(h)11-------------|
D------9---11---12----------------------------------------------------------12--9-----|
A--12------------------------------------------------------------------------------12-|
E-------------------------------------------------------------------------------------|

E------------------------------------------------|
B------------------------------------------------|
G------------------------------------------------|
D---7(h)9(p)7---7(h)9(p)7---7----7(h)9(p)7-------|
A------------------------------------------------|
E------------------------------------------------|

1:16
E----------------------------------------------------------------------------------------------|
B----------------------------------10(h)12(P)10-------------10(h)12(p)10-----------------------|
G-------------------9--11---12----------------------------------------------9(h)11-------------|
D------9---11---12-------------------------------------------------------------------12--9-----|
A--12---------------------------------------------------------------------------------------12-|
E----------------------------------------------------------------------------------------------|

1:28
E----------------------------------------------------------------------------------10--9-------|
B----------------------------------10(h)12(P)10------10(h)12(p)10---10(h)12(p)10---------------|
G-------------------9--11---12-----------------------------------------------------------------|
D------9---11---12-----------------------------------------------------------------------------|
A--12------------------------------------------------------------------------------------------|
E----------------------------------------------------------------------------------------------|

E-------------------------------------------------------------------|
B---10(h)12(p)10----------------------------------------------------|
G------------------9(h)11--------------------97-------97---97----|
D--------------------------12----9----------119------119--119----|
A-------------------------------------12----------12----------------|
E-------------------------------------------------------------------|

1:40
E------------------------------------------------------------------------------------------------|
B----------------------------------10(h)12(P)10------10(h)12(p)10---10(h)12(p)10-----------------|
G-------------------9--11---12-------------------------------------------------------------12-10-|
D------9---11---12------------------------------------------------------------------11--12-------|
A--12--------------------------------------------------------------------------------------------|
E------------------------------------------------------------------------------------------------|

E-------------------------------------------|
B---10(h)12(p)10----------------------------|
G------------------9(h)11-------------------|
D--------------------------12----9----12----|
A-------------------------------------------|
E-------------------------------------------|

B-verse 1:52
E-------------------------------------------------------------------------------10--|
B------------------/7---------------------------------------------------------------|
G------------7-----------7--------7---7----------------------/7------------/7-------|
D---7---9---------------------9------------9--------------7-------7-----7-----------|
A------------------------------------------------7----9-----------------------------|
E-----------------------------------------------------------------------------------|

E--------------------------------------------------------------------------------------|
B-------------------------------------------------------------------/7-----------------|
G----------------7------9-----7---------7----7------------------7-------7-------7-----|
D----7------9-----------------------9--------------9----7----9---------------9-------9-|
A--------------------------------------------------------------------------------------|
E--------------------------------------------------------------------------------------|

E----------------14---------------------------------------------13--12--10------14--17--|
B---------------------------15---12----15---12------------------------------12----------|
G----------------11-----------------------------------------7---10---9---7------11--14--|
D-----7----9----------------12----9----12----9-----7----9--------------------9----------|
A---------------------------------------------------------------------------------------|
E---------------------------------------------------------------------------------------|

E----------------14---------------------------------------------13--12--10------14--17--|
B---------------------------15---12----15---12------------------------------12----------|
G----------------11-----------------------------------------7---10---9---7------11--14--|
D-----7----9----------------12----9----12----9-----7----9--------------------9----------|
A---------------------------------------------------------------------------------------|
E---------------------------------------------------------------------------------------|

Verse melody 2:15
E-----------------------------------------------------------------------------------------------|
B----------------------------------10-----------------------------------------------------------|
G-------------------9--11---12----------------------9(h)11--------------------------------------|
D------9---11---12-----------------------------------------------12--9------------9-------------|
A--12--------------------------------------------------------------------12---12------9----10---|
E-----------------------------------------------------------------------------------------------|

E----------------------------------------------|
B----------------------------------------------|
G----------------------------------------------|
D----------------------------------------------|
A------12-----12-----12------------------------|
E----------------------------------------------|

E----------------------------------------------------------------------------------------------|
B----------------------------------10(h)12(P)10---10(h)12(p)10---10(h)12(p)10----10(h)12(p)10--|
G-------------------9--11---12-----------------------------------------------------------------|
D------9---11---12-----------------------------------------------------------------------------|
A--12------------------------------------------------------------------------------------------|
E----------------------------------------------------------------------------------------------|

E----10----9-----------------------------------------------------------------------|
B-------------10(h)12(P)10---10(h)12(p)10---10(h)12(p)10---------------------------|
G-------------------------------------------------------------9(h)11---------------|
D----------------------------------------------------------------------12---9------|
A-------------------------------------------------------------------------------12-|
E----------------------------------------------------------------------------------|


^=fullbend +=1/2bend

Solo 2:38
E---------------------------------10---10----------------------------------------------------|
B--------10--10--------10---10--------------------10----12-----------------------------------|
G--9h11----------9h11------------------------11----------------------------------------9h11--|
D------------------------------------------------------------12p11--11p9--9------------------|
A----------------------------------------------------------------------------12---12---------|
E--------------------------------------------------------------------------------------------|
                     ^
E-------------------------------------------------10-----------10h12----10h12---------|
B---------------10-----------------10h12----------------------------------------------|
G--11-------12-------9----7----7-----------7---7-------7---7--------------------------|
D-------------------------------------------------------------------------------------|
A-------------------------------------------------------------------------------------|
E-------------------------------------------------------------------------------------|
				+	      +              +hold the bend
E--10------10---------------10--13-------10--13---------10--13--13--13---13---13--|
B------12--------12---10h12--------10h12---------10h12----------------------------|
G---------------------------------------------------------------------------------|
D---------------------------------------------------------------------------------|
A---------------------------------------------------------------------------------|
E---------------------------------------------------------------------------------|
             ^    +    +
E--10----------------------------------------------------------------------------------|
B------10---13---13---13---10--------------------------10---------------------------10-|
G--------------------------------------------12---12-------11--------------------11----|
D------------------------------12---12---12--------------------12---------9--12--------|
A-----------------------------------------------------------------12--10---------------|
E--------------------------------------------------------------------------------------|
            +                          +
E- 10--10--13--13p12p10------10-------13-----|
B-----------------------12-------12----------|
G--------------------------------------------|
D--------------------------------------------|
A--------------------------------------------|
E--------------------------------------------|
    +    +                        ^
E--13---13---10------------------------------|
B----------------10------/7------------------|
G----------------------------7----9----------|
D--------------------------------------------|
A--------------------------------------------|
E--------------------------------------------|

E--7--------------------------------------------------------------------------------------|
B-----10---7-----------------------------------------------------7--10---7----8----10-----|
G-------------7--7-------7----7-----------------7------------7----------------------------|
D-------------------9--------------9--------9------------9--------------------------------|
A--------------------------------------10-----------10------------------------------------|
E-----------------------------------------------------------------------------------------|

E--/9-------------------------------------------------------------------|
B-------10----7----10---10---12---10----10h12p10---10h12p10-------------|
G-----------------------------------------------------------------------|
D-----------------------------------------------------------------------|
A-----------------------------------------------------------------------|
E-----------------------------------------------------------------------|

E-------------------------------------------------/12--12---10---9--10--9h10--------------------|
B----------------------------------10--12--12/14------------------------------12--12--10--------|
G-----------------------9--11--12---------------------------------------------------------------|
D------------9--11--12--------------------------------------------------------------------------|
A--9--10--12------------------------------------------------------------------------------------|
E-----------------------------------------------------------------------------------------------|

E----------------------------------------------------9-------------|
B--12--10--------12--10-------------------------12-----------------|
G-----------12-----------12---11---9---11---12---------------------|
D------------------------------------------------------------------|
A------------------------------------------------------------------|
E------------------------------------------------------------------|
   +
E--9------------------------------------------------------------------------------------------|
B-----10---10---------------------------------------------------------------------------------|
G--------------11---11-------------------12---12--12---9---9---9------------------------------|
D-----------------------11---11-----------------------------------11---11--11-----------------|
A--------------------------------12--12------------------------------------------12---10---10-|
E---------------------------------------------------------------------------------------------|

E------------------------------------|
B------------------10-----10h12--10--|
G--11---11----11---------------------|
D------------------------------------|
A------------------------------------|
E------------------------------------|
                                                                                 +
E-----------------------------------------------------------7-----------------------------|
B--10----10---10----10---10---10--10/10---10---10---10--10--------------------------------|
G---------------------------------------------------------------9--9--7--7------10--------|
D----------------------------------------------------------------------------9------------|
A-----------------------------------------------------------------------------------------|
E-----------------------------------------------------------------------------------------|
     +       +              +
E------------------------------------------------------------------------------------------------|
B-------7-----------------------------------------15---------------------------------10----------|
G---10------10-----9----7--10---7---7---7--7/11-------7---7---7---7---7---7---7---/7------7---7--|
D------------------------------------------------------------------------------------------------|
A------------------------------------------------------------------------------------------------|
E------------------------------------------------------------------------------------------------|
                              +
E------------------------------------------7--------------------------4----5---------------------|
B--------------------10---------------------------------------6---8-----------8-6----------------|
G--7---7---7------7------7---10--7--7--7------7---7---7---7-----------------------7-5------------|
D-------------------------------------------------------------------------------------7-5--------|
A-----------------------------------------------------------------------------------------8-5----|
E----------------------------------------------------------------------------------------------9-|

Tablature player for this song:
 
 
George Benson - Breezin Tab :: indexed at Ultimate Guitar.
Breezin tabs @ 911Tabs

About the artist behind Breezin Tab:

George Benson (b. March 22, 1943, Pittsburgh, Pennsylvania) is an American musician, whose recording career began at the age of twenty-one as a jazz guitarist. He is however, better known to the public at large as a Pop and R&B singer, famous for such hits as "Give Me The Night", "Lady Love Me (One More Time)", "Turn Your Love Around", "In Your Eyes" and "This Masquerade", among others.

Indexed at Wikipedia.

Show us your talent, perform Breezin Tab!

Here you can post a video or audio performance. Tell me more ...
Where can we find your performance? Tell me more ...
Your comment:
Please, log in to post your performance.