Artists by letter: A B C D E F G H I J K L M N O P Q R S T U V W X Y Z 0-9
 
Drowning In Tears Tab
Gary Moore - Drowning in Tears
From the Back To The Blues album

Lots of vibrato and slight bends, which are pointless to write out, so just go by your ears.

Overall n easy song to play, but just remember the feel is the most important thing!!!!!!!

Have fun

0.13  ~~~~~	~~~~~~~~~~~~~			~~~~~~~~~~~~~~~~~
|----------------------------|--------------------------|
|----------------------------|--------------------------|
|--/14-----12/14-/-7/9-------|--------14----12/14-/-7/9|
|----------------------------|--------------------------|
|----------------------------|--------------------------|
|----------------------------|--------------------------|
				  x2 The woman I love 
			~~~~				  ~~~         ~~~~
|-------------------------------------------------------|
|-------------------------------------------------------|
|------------7/9-------------------7/9---7/9/12/9-------|
|-------------------------------------------------------|
|-------------------------------------------------------|
|-------------------------------------------------------|
she is the one 	    I waited for so many         now she's
					   ~~~~~~		    ~~~~
|-------------------------------------------------------|
|-------------------------------------------------------|
|------------------------
|-------------------------------------------------------|
|-------------------------------------------------------|
|-------------------------------------------------------|
leaving  + drowning in tears  					I was the
		   ~~~~~~~~~~~~~~~~~~~~~~~~~~~~~~~~~~~~~~~~~~~
|-------------------------------------------------------|
|-------------------------------------------------------|
|-----9/12/14--------------------12-----/9/12/14--------|
|-------------------------------------------------------|
|-------------------------------------------------------|
|-------------------------------------------------------|
one  		 sending you kisses from the stars
~~~~~~~~~~~~~~~~~~~~~~~~~~~~~~~~~~~~~~~~~~~~~~~~~~~~~~~~
|-------------------------------------------------------|
|-------------------------------------------------------|
|-----------------------------12-/-10----------/7-------|
|-------------------------------------------------------|
|-------------------------------------------------------|
|-------------------------------------------------------|
I was the  fought relentlessly		wishing  hadn't


	~~~~~~~	~~~~~~~~~~	~~~~~~~~~~~~~~~~~~~~~~~~~~~
|-------------------------------------------------------|
|-------------------------------------------------------|
|-14-----12/14-/-7/9--------12/14/7/9----------/12/10/9|
|-------------------------------------------------------|
|-------------------------------------------------------|
|-------------------------------------------------------|		    The woman I   			 I'm 
to 
~~~~~~~~~~~~~~~~~~~~~~~~~~~~~~~~~~~~~~~~~~~~~~~~~~~~~~~~
|-------------------------------------------------------|
|-------------------------------------------------------|
|-------------------12/14-/12-/-9------/12/14-/12-/9----|
|-------------------------------------------------------|
|-------------------------------------------------------|
|-------------------------------------------------------|
she promised her heart 			    I feel 
~~~~~~~~~~~~~~~~~~~~~~~~~~~~~~~~~~~~~~~~~~~~~~~~~~~~~~~~~
|----------------------------------------|--------------|
|----------------------------------------|--------------|
|--14-12/14-/-7/9--------14-12/14-/-7/9--|--------------|
|----------------------------------------|--------------|
|----------------------------------------|--------------|
|----------------------------------------|--------------|

Solo
~~~~~~~~~~~~~~~~~~~~~~~~~~~~~~     ~~~~~~~~       ~~~~~~~
|----------------------------------------------------------|
|------------------------------------B--R------------------|
|-14-12/14-7/9-----9/12/14--14-16-16(17)16---16/12/14-----|
|----------------------------------------------------------|
|----------------------------------------------------------|
|----------------------------------------------------------|

		~~~~~~       ~~~~~~~~~~~
|----------------------------------b_____r--b----r--b-----|
|--------b______r--p-------------15(17)---15-(16)-15-(16--|
|--14/16(19)-----16-14------------------------------------|
|---------------------------------------------------------|
|---------------------------------------------------------|
|---------------------------------------------------------|

		~~~~~~~~~~~~~~~~grad release~~~~~~~~~~~~~~~~~
|r---p--------------------b____r---b----r--b----r--p------|
|-1513/12-----------15-15(17)---15-(16)-15-(16)-15-13/12-|
|---------------------------------------------------------|
|---------------------------------------------------------|
|---------------------------------------------------------|
|---------------------------------------------------------|

~~~~~~~~~~~~~~~~~~~~~~~~~~~~~~~~~~~~~~~~~~~~~~~~~~~~~~~~~
|------b____r--b----r--Br--p----------------------------|
|-15-15(17)--15-(16)-1515---13-/-12-------12/8/10------|
|-------------------------------------------------------|
|-------------------------------------------------------|
|-------------------------------------------------------|
|-------------------------------------------------------|

only pick once     ~~~~~~~~
|-------------------|        ~~~~~~~~---------------------|
|----br-------p-h--------------------------------b___r----|
|-10(11)10--10-8-10----
|---------------------------------------------------------|
|---------------------------------------------------------|
|---------------------------------------------------------|
|---------------------------------------------------------|

hold for a long time intil feedback occurs and use vibrato  ~~~~~~~~~~~~~~~~~~~~~~~~~
|------b_____________________________r------------------|
|-15-15(17)---------------------------15----------------|
|-------------------------------------------------------|
|-------------------------------------------------------|
|-------------------------------------------------------|
|-------------------------------------------------------|

	   ~~~~		   ~~~~~~		~~~~~~~~~
|-------------------------------------------------------|
|----------------7--------------------------------b--r--|
|--7-9-7-----7-9---7-9--------7-9-7----------9-7-9(10)9-|
|-------------------------------------------------------|
|-------------------------------------------------------|
|-------------------------------------------------------|
	    ~~~~~~        ~~~~~~~~		  ~~~	    ~~~
|-8-10-12------/15-10-12----------12-15-17----17-15-12--|
|-------------------------------------------------------|
|-------------------------------------------------------|
|-------------------------------------------------------|
|-------------------------------------------------------|
|-------------------------------------------------------|

		~~~~~~
|------------------------b--rb_______r-----------------|
|--15-12-10------12-15-15(17)15(17)---15-10-12----------|
|-------------------------------------------------------|
|-------------------------------------------------------|
|-------------------------------------------------------|
|-------------------------------------------------------|


		B   		b ______r  p  ~~~~~~~~~~~~~~~~~~~~~~~
|-12-15-15(17)-17/19(21)-----19-17----------------------|
|-------------------------------------------------------|
|-------------------------------------------------------|
|-------------------------------------------------------|
|-------------------------------------------------------|
|-------------------------------------------------------|

~~~~~~~~~~~~~~~~~~~~~~~~~~~~~~~~~~~~~~~~~~~~~~~~~~~~~~~~~
|-------------------------------------------------------|
|-------------------------------------------------------|
|-------------------------------------------------------|
|-------------------------------------------------------|
|-------------------------------------------------------|
|-------------------------------------------------------|


to finish the song just noodle around lots of long held notes around high e,
Sorry but after all this I just couldn't get those last few notes.

Tablature player for this song:
 
 
Gary Moore - Drowning In Tears Tab :: indexed at Ultimate Guitar.
Drowning In Tears tabs @ 911Tabs

About the artist behind Drowning In Tears Tab:

Gary Moore (born Robert William Gary Moore, 4 April 1952, Belfast, Northern Ireland) is a Northern Irish guitarist. In a career dating back to the 1960s, he has played with artists including Thin Lizzy, Colosseum II, Greg Lake and the blues-rock band Skid Row as well as having a successful solo career. Among many cameo appearances over the years, he performed the lead guitar solo on "She's My Baby" from Traveling Wilburys Vol. 3.

Indexed at Wikipedia.

Show us your talent, perform Drowning In Tears Tab!

Here you can post a video or audio performance. Tell me more ...
Where can we find your performance? Tell me more ...
Your comment:
Please, log in to post your performance.