Artists by letter: A B C D E F G H I J K L M N O P Q R S T U V W X Y Z 0-9
 
Hope Tab
The tuning is in Drop Bb (Bb-F-Bb-Eb-G-C-)
the song is mostly in palm mute

Song: Hope

Artist: We Came As Romans

Album: Understanding What We've Grown To Be Deluxe edition

Record Label: Equal Vision Records

C :--------------------------------------------------------------------------|
G :--------------------------------------------------------------------------|
Eb:--------------------------------------------------------------------------|
Bb:--------------------------------------------------------------------------|
F :-2-2--2-2--2-2--2--5-5--5-5--5-5--0-0--0-0--0-0--0-0--0-0--2-2--2-2--2----|
Bb:-2-2--2-2--2-2--2--5-5--5-5--5-5--0-0--0-0--0-0--0-0--0-0--2-2--2-2--2----|
    * *  * *  * *  *  * *  * *  * *  * *  * *  * *  * *  * *  * *  * *  *

little riff change going into the verse
C :--------------------------------------------------------------------------|
G :--------------------------------------------------------------------------|
Eb:--------------------------------------------------------------------------|
Bb:--------------------------------------------------------------------------|
F :--3-3-2-------------------------------------------------------------------|
Bb:-2-2-2--------------------------------------------------------------------|
    * * *

Verse riff

(Sometimes I feel so wrong Like I'm being held down...)

C :--------------------------------------------------------------------------|
G :--------------------------------------------------------------------------|
Eb:--------------------------------------------------------------------------|
Bb:-2-2-2--5-5-5-5-5--0-0-0--2-2-2-2-2----(    )-----------------------------|
F :-2-2-2--5-5-5-5-5--0-0-0--2-2-2-2-2----( x2 )-----------------------------|
Bb:-2-2-2--5-5-5-5-5--0-0-0--2-2-2-2-2----(    )-----------------------------|
      *    *   * *      *    *   * *

(I can run I can change all the answers..)

C :---------------------------------------------------------------------------|
G :---------------------------------------------------------------------------|
Eb:---------------------------------------------------------------------------|
Bb:---------------------------------------------------------------------------|
F :---------------------------------------------------------------------------|
Bb:-2-2-2-2-2-2-2-2-2-2-5-5-5-5-5-5-5-5-5-5-0-0-0-0-0-0-0-0-0-0-2-2-2-2-2-2-2-|
    * * * * * * * * * * * * * * * * * * * * * * * * * * * * * * * * * * * * *

(Don't fade away.....)

C :--------------------------------------------------------------------------|
G :--------------------------------------------------------------------------|
Eb:--------------------------------------------------------------------------|
Bb:-0~~ ---------------------------------------------------------------------|
F :-0~~ ---------------------------------------------------------------------|
Bb:-0~~ ---------------------------------------------------------------------|

Chorus riff
(We won't fall to our knees)
C :--------------------------------------------------------------------------|
G :--------------------------------------------------------------------------|
Eb:--------------------------------------------------------------------------|
Bb:--------------------------------------------------------------------------|
F :-2-2--2-2--2-2--2--5-5--5-5--5-5--0-0--0-0--0-0--0-0--0-0--2-2--2-2--2----|
Bb:-2-2--2-2--2-2--2--5-5--5-5--5-5--0-0--0-0--0-0--0-0--0-0--2-2--2-2--2----|
    * *  * *  * *  *  * *  * *  * *  * *  * *  * *  * *  * *  * *  * *  *

C :--------------------------------------------------------------------------|
G :--------------------------------------------------------------------------|
Eb:--------------------------------------------------------------------------|
Bb:--------------------------------------------------------------------------|
F :--3-3-2-------------------------------------------------------------------|
Bb:-2-2-2--------------------------------------------------------------------|
    * * *



(So give me answer now...)
C :--------------------------------------------------------------------------|
G :--------------------------------------------------------------------------|
Eb:--------------------------------------------------------------------------|
Bb:-2~~ -5~~ -7-0~~ -2~~ ---------(    )-------------------------------------|
F :-2~~ -5~~ -7-0~~ -2~~ ---------( x2 )-------------------------------------|
Bb:-2~~ -5~~ -7-0~~ -2~~ ---------(    )-------------------------------------|

Ending of verse 2
(You can change you can become selfless...)
C :---------------------------------------------------------------------------|
G :---------------------------------------------------------------------------|
Eb:---------------------------------------------------------------------------|
Bb:---------------------------------------------------------------------------|
F :---------------------------------------------------------------------------|
Bb:-2-2-2-2-2-2-2-2-2-2-5-5-5-5-5-5-5-5-5-5-0-0-0-0-0-0-0-0-0-0-2-2-2-2-2-2-2-|
    * * * * * * * * * * * * * * * * * * * * * * * * * * * * * * * * * * * * *

(Don't fade away.....)

C :--------------------------------------------------------------------------|
G :--------------------------------------------------------------------------|
Eb:--------------------------------------------------------------------------|
Bb:-0~~ ---------------------------------------------------------------------|
F :-0~~ ---------------------------------------------------------------------|
Bb:-0~~ ---------------------------------------------------------------------|

Chorus
(We won't fall to our knees...)
C :--------------------------------------------------------------------------|
G :--------------------------------------------------------------------------|
Eb:--------------------------------------------------------------------------|
Bb:--------------------------------------------------------------------------|
F :-2-2--2-2--2-2--2--5-5--5-5--5-5--0-0--0-0--0-0--0-0--0-0--2-2--2-2--2----|
Bb:-2-2--2-2--2-2--2--5-5--5-5--5-5--0-0--0-0--0-0--0-0--0-0--2-2--2-2--2----|
    * *  * *  * *  *  * *  * *  * *  * *  * *  * *  * *  * *  * *  * *  *

C :--------------------------------------------------------------------------|
G :--------------------------------------------------------------------------|
Eb:--------------------------------------------------------------------------|
Bb:--------------------------------------------------------------------------|
F :--3-3-2-------------------------------------------------------------------|
Bb:-2-2-2--------------------------------------------------------------------|
    * * *

(We are the one true hope, so are you with me...)

C :--------------------------------------------------------------------------|
G :--------------------------------------------------------------------------|
Eb:--------------------------------------------------------------------------|
Bb:-2-(    )-0-(    )-5-(    )-0-(    )--------------------------------------|
F :-2-( x8 )-0-( x8 )-5-( x8 )-0-( x8 )--------------------------------------|
Bb:-2-(    )-0-(    )-5-(    )-0-(    )--------------------------------------|

(Or will you fall to your knees...)

C :--------------------------------------------------------------------------|
G :--------------------------------------------------------------------------|
Eb:--------------------------------------------------------------------------|
Bb:-2-(     )--2-2--2-2--2-2-2--2-2------------------------------------------|
F :-2-( x12 )--2-2--2-2--2-2-2--2-2------------------------------------------|
Bb:-2-(     )--2-2--2-2--2-2-2--2-2------------------------------------------|
    *          * *  * *  * * *  * *



(Are you in? Are you Out?...)
C :--------------------------------------------------------------------------|
G :--------------------------------------------------------------------------|
Eb:--------------------------------------------------------------------------|
Bb:--------------------------------------------------------------------------|
F :-2-2--2-2--2-2--2--5-5--5-5--5-5--0-0--0-0--0-0--0-0--0-0--2-2--2-2--2----|
Bb:-2-2--2-2--2-2--2--5-5--5-5--5-5--0-0--0-0--0-0--0-0--0-0--2-2--2-2--2----|
    * *  * *  * *  *  * *  * *  * *  * *  * *  * *  * *  * *  * *  * *  *

C :--------------------------------------------------------------------------|
G :--------------------------------------------------------------------------|
Eb:--------------------------------------------------------------------------|
Bb:--------------------------------------------------------------------------|
F :--3-3-2-------------------------------------------------------------------|
Bb:-2-2-2--------------------------------------------------------------------|
    * * *

Play this part until the song ends
(So give me an answer now...)
C :--------------------------------------------------------------------------|
G :--------------------------------------------------------------------------|
Eb:--------------------------------------------------------------------------|
Bb:-2~~ -5~~ -7-0~~ -2~~ ---------(    )-------------------------------------|
F :-2~~ -5~~ -7-0~~ -2~~ ---------( x2 )-------------------------------------|
Bb:-2~~ -5~~ -7-0~~ -2~~ ---------(    )-------------------------------------|
Tablature player for this song:
 
 
We Came As Romans - Hope Tab :: indexed at Ultimate Guitar.
Hope tabs @ 911Tabs
People who played We Came As Romans - Hope Tab also played these songs by We Came As Romans:
Dreams Tab, To Move On Is To Grow Tab, Broken Statues Tab, To Plant A Seed Tab, We Are The Reasons Tab, Intentions Tab

Quick tip, so you can enjoy Hope Tab even more:

You might want to transpose the song if it is too high or too low for you to sing. Just click the desired option while playing a song and all the chords will automatically be transponded into a new key.

Show us your talent, perform Hope Tab!

Here you can post a video or audio performance. Tell me more ...
Where can we find your performance? Tell me more ...
Your comment:
Please, log in to post your performance.