Artists by letter: A B C D E F G H I J K L M N O P Q R S T U V W X Y Z 0-9
 
Buko Tab
Jireh Lim - Buko (Arranged by Jorell Prospero) FINGERSTYLE

CAPO- 2nd fret

INTRO:

e-----------------------------------------------------------|
B--3-----1----0-----------------0---------------------------|
G----------0--------0--2------2---2-------------------------|
D----0-----------0----------0-------------------------------|
A-------------------------2---------------------------------|
E--3--------------------------------------------------------|

e-----------------------------------------------------------|
B--0--0---3-----1------0--------------0---------------------|
G------------------0----------0--2-------2-0----------------|
D------------2------------2---------0-----------------------|
A---------0-------------------------------------------------|
E-----------------------------------------------------------|

e-----------------------------------------------------------|
B-0-0---3-----1----0-----------------0----------------------|
G---------------0--------0--2------2---2--------------------|
D---------0-----------0----------0--------------------------|
A------------------------------2----------------------------|
E-------3---------------------------------------------------|

e-----------------------------------------------2------------|
B--0--0---3-----1------0--------------0---------3------------|
G------------------0----------0--2-------2-0----2------------|
D------------2------------2---------0------------------------|
A---------0--------------------------------------------------|
E------------------------------------------------------------|



VERSE:

e-------------------------------------------------------------|
B------------------T---------0--------T-------T---------------|
G--2/4--2--0----0--A----0--2--------2-A-3---0-A-0-------------|
D---------------0--P----0-----------0-P-0-----P---------------|
A------------------------------1/2------2---------------------|
E-------------3-------3---------------------------------------|

e-------------------------------------------------------------|
B--0-0----------------------------0---------------------------|
G----2----2--0--0--0-----2-T--2-----2--0----------------------|
D----2----------x------0---A--0-----X-------------------------|
A--0-x-0--0----------------P----------------------------------|
E-------------------------------------------------------------|

e---------------0--------------------------------------------|
B------------------3----3--T--3--0--T--0---------------------|
G-----0--T---0----------0--A--0-----A------------------------|
D-----0--A---0-------------P--------P------------------------|
A--------P-----------2--------2------------------------------|
E---3------3-------------------------------------------------|

e------------------------------------------------------------|
B----3---1------0-----------------T-----0--------------------|
G--------0---------0--0--0-----2--A--2----2--0---------------|
D--------x------------x-----0-----P--0-----------------------|
A----0-------0--0--------------------------------------------|
E------------------------------------------------------------|

e------------------------------------------------------------|
B-------------T---------0--------T-------0-------------------|
G----------0--A----0--2--------2-A-3---0-T----2--2-0-0-2-----|
D----------0--P----0-----------0-P-0-------------X-----------|
A-------------------------1/2------2-----A--0----X---0-------|
E--------3-------3-----------------------P-------------------|

e----------------------------------0-------------------------|
B-----0-------------------------------3---3--T--3----0---0---|
G---0------2-2--0--2--0-0--T----0---------0--A--0------T-----|
D-------0----0--0--0----0--A----0------------P---------A-----|
A------------X-----X-------P------------2-------2------P-----|
E-----------------------3----3-------------------------------|

e------------------------------------------------------------|
B---3---1----0------------------T----------------------------|
G-------0-------0--0--0------2--A--2-------------------------|
D-------X----------0-----0------P--0-------------------------|
A---0-----0--0-----X-----------------------------------------|
E------------------------------------------------------------|



REFRAIN:

e----------------------------------------------------------------------------|
B----0---------------T-----------T-------------------------------------------|
G--0-----2--2--0--0--A--0--0--2--A--2----------------------------------------|
D-----------0--------P-----------P--------------------------- -----> REPEAT--| 3X
A------0----X-----0--------2--------2----------------------------------------|
E----------------------------------------------------------------------------|

THEN,

e------------------------------------------------------------|
B----0----------------------------4--------------------------|
G--0------2--2--0-2-----0-h-2-0---3--------------------------|
D------------0-------0------------5--------------------------|
A-------3----X----3---------------3--------------------------|
E------------------------------------------------------------|



CHORUS: NOTE* KAPAG MAY "x" NA MARK, IBIG SABIHIN NUN STRUM AH? :)

e------------------------------------------------------------|
B-0-T-0--3----1----1----------------0-------0--0-------------|
G---A---------0----0-----0--2----2--2----2-------------------|
D---P------0--x-------0--x----------x------------------------|
A------------------------------2----2--2---------------------|
E--------3-------3-------------------------------------------|

e------------------------------------------------------------|
B---3-----1-----0--------------------------------------------|
G---------0--------0--0--0-----2--2--------------------------|
D------2--x-----------x-----0-----0--------------------------|
A---0--------0--0-----x--------------------------------------|
E------------------------------------------------------------|

e------------------------------------------------------------|
B-0-T-0--3----1----1----------------0-------0--0-------------|
G---A---------0----0-----0--2----2--2----2-------------------|
D---P------0--x-------0--x----------x------------------------|
A------------------------------2----2--2---------------------|
E--------3-------3-------------------------------------------|

e------------------------------------------------------------|
B---3-----1-----0--------------------------------------------|
G---------0--------0--0--0-----2--2--------------------------|
D------2--x-----------x-----0-----0--------------------------|
A---0--------0--0-----x--------------------------------------|
E------------------------------------------------------------|

Kahit na...

e----------------------------------------------------------------------------|
B---0------------T---------0----3--0-----------------------------------------|
G------2--0---2--A----0--2------------2--------------------------------------|
D-------------2--P------------------------------------------- -----> REPEAT--| 2X
A-----------0-------0--------2-----------------------------------------------|
E----------------------------------------------------------------------------|

THEN,

e---------------------------3--------------------------------|
B-----0---3--T--0-h-2-0-----2-----0--------------------------|
G---0--------A--------------3---0---0--0-h-2-0---------------|
D------------P--------------0--------------------------------|
A-------3-------3--------------------------------------------|
E------------------------------------------------------------|

BACK TO INTRO, THEN VERSE. ETO LANG YUNG NADAGDAG SA 2ND VERSE,

"kAHIT MGA BITUIN AKING SUSUNGKITIN"

e--------------------------------------------2----------------|
B---0--3----1--1--0--0-----------------------3-(5X YUNG D)----|
G--------------0-------0-0--0----2--2-0--2---2----------------|
D--------------X---------X----0-----0-------------------------|
A--------0-----------0--------------X-------------------------|
E-------------------------------------------------------------|

CHORUS AGAIN..

TAPOS,

KAHIT NA.. PART..



BRIDGE (ARAW ARAW KITANG, LILIGAWAN..)

e------------------------------------------------------------------------------------|
B----0------T------------------3--------0-0--3---------0-0-H-1-0---------------------|
G--0------2-A-2-----0--2---------2--2-----------2--2-------------0-------------------|
D-----------P-------0-----0--0---0--------------0----0---0----------- -----> REPEAT--| 3X
A-------3-----3---3-X------------X--------------X------------------------------------|
E-------------------------------------0---0------------------------------------------|

REPEAT THE FIRST CHORUS, (KUNG INAAKALA MO,)

THEN LAST CHORUS.

E FIRST THEN A, C#m, Bm

e--------------------------------x------------------------------|
B----2--3--5---3----2------------0-2--2-------------------------|
G--------------2-------2--4----4-4------------------------------|
D------------2-2-------2---------0------------------------------|
A----------0---x-0--0--------4---4------------------------------|
E---------------------------------------------------------------|

e-0-------------------------------------------------------------|
B------3-----2-----------1--T---1-------------------------------|
G------0-----0--2--2-----2--A---2-------------------------------|
D---0--x-----------------2--P---2-------------------------------|
A-2-------2--2--------------------------------------------------|
E---------------------0-------0---------------------------------|

KAHIT NA.. DI MO NA ABOT ANG SAHIG.. PART

e------------------------------0----------------------------------------------|
B---2--0-------T---------2--------2--0--2-0-----------------------------------|
G--------2---2-A---2--4-----------0-------0-----------------------------------|
D------------0-P------------------X-------X------------------- -----> REPEAT--| 4X
A----------2-----2-----------4------------------------------------------------|
E-----------------------------------------------------------------------------|

THEN, IKAW PA RIN ANG BUHAY KO PART..

e-----------------0---------------------0----5-------------------|
B----2--5--0------0------2-------------2-2-2-2-------------------|
G--2----------2---1----2---2-2S4-2----2---2--2-------------------|
D-----------------2------------------2-------2-------------------|
A-----------------2-----------------0----------------------------|
E-----------------0----------------------------------------------|
Tablature player for this song:
 
 
Jireh Lim - Buko Tab :: indexed at Ultimate Guitar.
Buko tabs @ 911Tabs

Quick tip, so you can enjoy Buko Tab even more:

You might want to transpose the song if it is too high or too low for you to sing. Just click the desired option while playing a song and all the chords will automatically be transponded into a new key.

Show us your talent, perform Buko Tab!

Here you can post a video or audio performance. Tell me more ...
Where can we find your performance? Tell me more ...
Your comment:
Please, log in to post your performance.