Artists by letter: A B C D E F G H I J K L M N O P Q R S T U V W X Y Z 0-9
 
To Live And To Lose Tab
Tabbed by: Joshua Garcia (halofreak731@aol.com)

Tabs for the song: To Live And To Lose by Silverstein
Please rate and let me know if you have any corrections. Thank you.

Tuning: Half-Step Down (D# G# C# F# A# D#)

Intro
Guitar 1/2:
D#||--------4-----------------------0-----------0-----|
A#||-----5-----5-----5--4--------2-----2-----2--------|
F#||--6-----------6--------4--2-----------2--------4--|
C#||--------------------------------------------------|
G#||--------------------------------------------------|
D#||--------------------------------------------------|



D#||----------4-----------------------0-----------0-----|
A#||-------5-----5-----5--4--------2-----2-----2-----2--|
F#||--4/6-----------6--------4--2-----------2-----------|
C#||----------------------------------------------------|
G#||----------------------------------------------------|
D#||----------------------------------------------------|

D#||----------4-----------------------0-----------0-----|
A#||-------5-----5-----5--4--------2-----2-----2--------|
F#||--4/6-----------6--------4--2-----------2--------4--|
C#||----------------------------------------------------|
G#||----------------------------------------------------|
D#||----------------------------------------------------|

D#||----------4-----------------------0-----------0-----|
A#||-------5-----5-----5--4--------2-----2-----2-----2--|
F#||--4/6-----------6--------4--2-----------2-----------|
C#||----------------------------------------------------|
G#||----------------------------------------------------|
D#||----------------------------------------------------|

D#||----------4-----------------------0-----------0-----|
A#||-------5-----5-----5--4--------2-----2-----2--------|
F#||--4/6-----------6--------4--2-----------2--------4--|
C#||----------------------------------------------------|
G#||----------------------------------------------------|
D#||----------------------------------------------------|

D#||----------4-----------------------0-----------------|
A#||-------5-----5-----5--4--------2--------2-----4-----|
F#||--4/6-----------6--------4--2--------2-----2-----4--|
C#||----------------------------------------------------|
G#||----------------------------------------------------|
D#||----------------------------------------------------|



Chorus
Guitar 1:
D#||--0-----0-----0-----0-----0-----0-----0-----0-----|
A#||--5-----5-----5-----5-----4-----4-----4-----4-----|
F#||-----6-----6-----6-----6-----6-----6-----6-----6--|
C#||--------------------------------------------------|
G#||--------------------------------------------------|
D#||--------------------------------------------------|

D#||--------------------------------------------------|
A#||--2-----2-----2-----2-----0-----0-----2-----4-----|
F#||-----4-----4-----4-----4-----4-----4-----4-----4--|
C#||--------------------------------------------------|
G#||--------------------------------------------------|
D#||--------------------------------------------------|

D#||--0-----0-----0-----0-----0-----0-----0-----0-----|
A#||--5-----5-----5-----5-----4-----4-----4-----4-----|
F#||-----6-----6-----6-----6-----6-----6-----6-----6--|
C#||--------------------------------------------------|
G#||--------------------------------------------------|
D#||--------------------------------------------------|

D#||------------------------------|
A#||--2-----2-----2-----2-----0~--|
F#||-----4-----4-----4-----4------|
C#||------------------------------|
G#||------------------------------|
D#||------------------------------|

Guitar 2:
D#||--------------------------------------------------|
A#||--------------------------------------------------|
F#||--------1-----------1-----------1--------1--------|
C#||-----2-----2-----2-----2-----2-----2--4-----4-----|
G#||--4-----------4-----------3--------------------3--|
D#||--------------------------------------------------|

D#||--------------------------------------------------|
A#||--------------------------------0-----------0-----|
F#||--------1-----------1--------------1-----------1--|
C#||-----2-----2-----2-----2-----2-----------2--------|
G#||--------------------------0-----------0-----------|
D#||--0-----------0-----------------------------------|

D#||--------------------------------------------------|
A#||--------------------------------------------------|
F#||--------1-----------1-----------1--------1--------|
C#||-----2-----2-----2-----2-----2-----2--4-----4-----|
G#||--4-----------4-----------3--------------------3--|
D#||--------------------------------------------------|

D#||------------------------------|
A#||--------0-----------0-----0~--|
F#||-----------1-----------1--1~--|
C#||-----2-----------2------------|
G#||--0-----------0---------------|
D#||------------------------------|



Verse
Guitar 1:
D#||--------4-----------------|--------------------------|
A#||-----5-----5-----5--4-----|--------------------------|
F#||--6-----------6--------4--|--2--2--2--2--2--2--2--2--|
C#||--------------------------|--2--2--2--2--2--2--2--2--| x4
G#||--------------------------|--0--0--0--0--0--0--0--0--|
D#||--------------------------|--------------------------|

Guitar 2:
D#||---------|--------------------------|---------|
A#||---'5~---|--------------------------|---------|
F#||---------|--2--2--2--2--2--2--2--2--|---------|
C#||---------|--2--2--2--2--2--2--2--2--|---------|
G#||---------|--0--0--0--0--0--0--0--0--|---------|
D#||---------|--------------------------|---'9~---|

Guitar 3 (Dub):
D#||---------|--------------------------|--------------------|
A#||---------|--------------------------|--------------------|
F#||---------|--2--2--2--2--2--2--2--2--|---'5~--'5-'5-'5~---|
C#||---------|--2--2--2--2--2--2--2--2--|--------------------|
G#||---------|--0--0--0--0--0--0--0--0--|--------------------|
D#||---'9~---|--------------------------|--------------------|

Guitar 2:
D#||------------------------|--------------------------|
A#||-----------------5------|--------------------------|
F#||---------4---------4----|--2--2--2--2--2--2--2--2--|
C#||-----4h6---6~--------6--|--2--2--2--2--2--2--2--2--|
G#||--4---------------------|--0--0--0--0--0--0--0--0--|
D#||------------------------|--------------------------|

D#||------------------------|--------------------------|
A#||------------------------|--------------------------|
F#||---------4-------7-6----|--2--2--2--2--2--2--2--2--|
C#||-----4h6---6~--------7--|--2--2--2--2--2--2--2--2--|
G#||--4---------------------|--0--0--0--0--0--0--0--0--|
D#||------------------------|--------------------------|



Chorus
Guitar 1:
D#||--------0-----0-----0-----------0-----0-----0-----|
A#||--------5-----5-----5-----------4-----4-----4-----|
F#||-----6-----6-----6-----6-----6-----6-----6-----6--|
C#||--6-----------------------6-----------------------|
G#||--------------------------------------------------|
D#||--------------------------------------------------|

D#||--------0-----0-----0-----------0-----0-----0-----|
A#||--------2-----2-----2-----------2-----2-----4-----|
F#||-----4-----4-----4-----4-----4-----4-----4-----4--|
C#||--2-----------------------2-----------------------|
G#||--------------------------------------------------|
D#||--------------------------------------------------|

D#||--------0-----0-----0-----------0-----0-----0-----|
A#||--------5-----5-----5-----------4-----4-----4-----|
F#||-----6-----6-----6-----6-----6-----6-----6-----6--|
C#||--6-----------------------6-----------------------|
G#||--------------------------------------------------|
D#||--------------------------------------------------|

D#||--------0-----0-----0-----------0-----0-----0-----|
A#||--------2-----2-----4-----------4-----5-----5-----|
F#||-----4-----4-----4-----4-----4-----4-----4-----4--|
C#||--2-----------------------2-----------------------|
G#||--------------------------------------------------|
D#||--------------------------------------------------|

Guitar 2:
D#||--------------------------------------------------|
A#||--------------------------------------------------|
F#||--------1-----1-----1-----------1--------1--------|
C#||-----2-----2-----2-----2-----2-----2--4-----4-----|
G#||--4-----------------------3--------------------3--|
D#||--------------------------------------------------|

D#||--------------------------------------------------|
A#||--------------------------------------------0-----|
F#||--------1-----1-----1-----------1-----1--------1--|
C#||-----2-----2-----2-----2-----2-----2-----2--------|
G#||--------------------------0-----------------------|
D#||--0-----------------------------------------------|

D#||--------------------------------------------------|
A#||--------------------------------------------------|
F#||--------1-----1-----1-----------1--------1--------|
C#||-----2-----2-----2-----2-----2-----2--4-----4-----|
G#||--4-----------------------3--------------------3--|
D#||--------------------------------------------------|

D#||-----------------------------------------------------|
A#||--------------------0--------------------------------|
F#||--------1-----1--------1--------1------1-------------|
C#||-----2-----2-----2-----------2-----2------2----------|
G#||--0--------------------------------------------------|
D#||--------------------------0-------------------//9\--|



Bridge
Guitar 1:
D#||-----------------------------------------------------------------|
A#||-----------------------------------------------------------------|
F#||-----------------------------------------------------------------|
C#||--9--11-9--------------------------------------------------------|
G#||--0--0--0--11~--1111--11--1111---7--7--9--11~--1111---11---1111--|
D#||-----------0-~--0-0---0---0-0----5--5--7--9-~--9-9----9----9-9---|

D#||--------------------------------------------------------------|
A#||--------------------------------------------------------------|
F#||--------------------------------------------------------------|
C#||--9--11-9-----------------------------------------------------|
G#||--0--0--0--11~--1111--11--1111---9~--9-9--9~---9-9-9-9-9-9-9--|
D#||-----------0-~--0-0---0---0-0----7~--7-7--7~---7-7-7-7-7-7-7--|

D#||-----------------------------------------------------------------|
A#||-----------------------------------------------------------------|
F#||-----------------------------------------------------------------|
C#||--9--11-9--------------------------------------------------------|
G#||--0--0--0--11~--1111--11--1111---7--7--9--11~--1111---11---1111--|
D#||-----------0-~--0-0---0---0-0----5--5--7--9-~--9-9----9----9-9---|

D#||---------------------------------------------------|
A#||---------------------------------------------------|
F#||---------------------------------------------------|
C#||--9--11-9------------------------------------------|
G#||--0--0--0--11~--1111--11--1111---9999999999999999--|
D#||-----------0-~--0-0---0---0-0----7777777777777777--|

Guitar 2:
D#||-------------------------------------------------------------|
A#||-------------------------------------------------------------|
F#||--2--2--2-----------------------2--2--4--6~---6-6---6---6-6--|
C#||--2--2--2--2~---2-2---2---2-2---2--2--4--6~---6-6---6---6-6--|
G#||--0--0--0--2~---2-2---2---2-2---0--0--2--4~---4-4---4---4-4--|
D#||-----------0~---0-0---0---0-0--------------------------------|

D#||-------------------------------------------------------------|
A#||-------------------------------------------------------------|
F#||--2--2--2-----------------------4~--4-4--4~---4-4-4-4-4-4-4--|
C#||--2--2--2--2~---2-2---2---2-2---4~--4-4--4~---4-4-4-4-4-4-4--|
G#||--0--0--0--2~---2-2---2---2-2---2~--2-2--2~---2-2-2-2-2-2-2--|
D#||-----------0~---0-0---0---0-0--------------------------------|

D#||-------------------------------------------------------------|
A#||-------------------------------------------------------------|
F#||--2--2--2-----------------------2--2--4--6~---6-6---6---6-6--|
C#||--2--2--2--2~---2-2---2---2-2---2--2--4--6~---6-6---6---6-6--|
G#||--0--0--0--2~---2-2---2---2-2---0--0--2--4~---4-4---4---4-4--|
D#||-----------0~---0-0---0---0-0--------------------------------|

D#||--------------------------------------------------|
A#||--------------------------------------------------|
F#||--2--2--2-----------------------4444444444444444--|
C#||--2--2--2--2~---2-2---2---2-2---4444444444444444--|
G#||--0--0--0--2~---2-2---2---2-2---2222222222222222--|
D#||-----------0~---0-0---0---0-0---------------------|

Guitar 3:
D#||-------------------------------------------------------------|
A#||-------------------------------------------------------------|
F#||--11--9--11--13--1313--13--1313--14--1313-1111-9--99--9--99--|
C#||--x---x--x---x---x-x---x---x-x---x---x-x--x-x--x--xx--x--xx--|
G#||--9---7--9---11--1111--11--1111--12--1111-9-9--7--77--7--77--|
D#||-------------------------------------------------------------|

D#||---------------------------------------------------------------------|
A#||---------------------------------------------------------------------|
F#||--11--9--11--13--1313--13--1313--11111111-13131313-1414141414141414--|
C#||--x---x--x---x---x-x---x---x-x---x-x-x-x--x-x-x-x--x-x-x-x-x-x-x-x---|
G#||--9---7--9---11--1111--11--1111--9-9-9-9--11111111-1212121212121212--|
D#||---------------------------------------------------------------------|



Interlude
Guitar 1:
D#||--------------------------------------------------|
A#||--5--5--5--5--5--5--5--5--4--4--4--4--4--4--4--4--|
F#||--6--6--6--6--6--6--6--6--6--6--6--6--6--6--6--6--|
C#||--------------------------------------------------|
G#||--------------------------------------------------|
D#||--------------------------------------------------|
      .  .  .  .  .  .  .  .  .  .  .  .  .  .  .  .

D#||--------------------------------------------------|
A#||--2--2--2--2--2--2--2--2--0--0--0--0--2--2--4--4--|
F#||--4--4--4--4--4--4--4--4--4--4--4--4--4--4--4--4--|
C#||--------------------------------------------------|
G#||--------------------------------------------------|
D#||--------------------------------------------------|
      .  .  .  .  .  .  .  .  .  .  .  .  .  .  .  .



Guitar 1:
D#||--0-----0-----0-----0-----0-----0-----0-----0-----|
A#||--5-----5-----5-----5-----4-----4-----4-----4-----|
F#||-----6-----6-----6-----6-----6-----6-----6-----6--|
C#||--------------------------------------------------|
G#||--------------------------------------------------|
D#||--------------------------------------------------|
         .     .     .     .     .     .     .     .

D#||--------------------------------------------------|
A#||--2-----2-----2-----2-----0--0--0--0--2--2--4--4--|
F#||--4--4--4--4--4--4--4--4--4--4--4--4--4--4--4--4--|
C#||--------------------------------------------------|
G#||--------------------------------------------------|
D#||--------------------------------------------------|
         .     .     .     .

Guitar 2:
D#||-----------------------------------------------|
A#||-----------------------------------------------|
F#||-----------------------------------------------|
C#||--6-----6-----6-----6-----6-----6-----6-----6--|
G#||--4-----4-----4-----4-----3-----3-----3-----3--|
D#||-----------------------------------------------|

D#||-------------------------------------------------|
A#||-------------------------------------------------|
F#||-------------------------------------------------|
C#||--2-----2-----2-----2-----2--2--2--2--2--222222--|
G#||--0-----0-----0-----0-----2--2--2--2--2--222222--|
D#||--------------------------0--0--0--0--0--000000--|



Chorus
Guitar 1:
D#||--------0-----0-----0-----------0-----0-----0-----|
A#||--------5-----5-----5-----------4-----4-----4-----|
F#||-----6-----6-----6-----6-----6-----6-----6-----6--|
C#||--6-----------------------6-----------------------|
G#||--------------------------------------------------|
D#||--------------------------------------------------|

D#||--------0-----0-----0-----------0-----0-----0-----|
A#||--------2-----2-----2-----------2-----2-----4-----|
F#||-----4-----4-----4-----4-----4-----4-----4-----4--|
C#||--2-----------------------2-----------------------|
G#||--------------------------------------------------|
D#||--------------------------------------------------|

D#||--------0-----0-----0-----------0-----0-----0-----|
A#||--------5-----5-----5-----------4-----4-----4-----|
F#||-----6-----6-----6-----6-----6-----6-----6-----6--|
C#||--6-----------------------6-----------------------|
G#||--------------------------------------------------|
D#||--------------------------------------------------|

D#||--------0-----0-----0-----------0-----0-----0-----|
A#||--------2-----2-----4-----------4-----5-----5-----|
F#||-----4-----4-----4-----4-----4-----4-----4-----4--|
C#||--2-----------------------2-----------------------|
G#||--------------------------------------------------|
D#||--------------------------------------------------|

Guitar 2:
D#||--------------------------------------------------|
A#||--------------------------------------------------|
F#||--------1-----1-----1-----------1--------1--------|
C#||-----2-----2-----2-----2-----2-----2--4-----4-----|
G#||--4-----------------------3--------------------3--|
D#||--------------------------------------------------|

D#||--------------------------------------------------|
A#||--------------------------------------------0-----|
F#||--------1-----1-----1-----------1-----1--------1--|
C#||-----2-----2-----2-----2-----2-----2-----2--------|
G#||--------------------------0-----------------------|
D#||--0-----------------------------------------------|

D#||--------------------------------------------------|
A#||--------------------------------------------------|
F#||--------1-----1-----1-----------1--------1--------|
C#||-----2-----2-----2-----2-----2-----2--4-----4-----|
G#||--4-----------------------3--------------------3--|
D#||--------------------------------------------------|

D#||---------------------------------------------------|
A#||--------------------0------------------------------|
F#||--------1-----1--------1--------1------1-----1-----|
C#||-----2-----2-----2-----------2-----2------2-----2--|
G#||--0------------------------------------------------|
D#||--------------------------0------------------------|



Guitar 1:
D#||-----------------------------------------------------|
A#||-----------------------------------------------------|
F#||--6--6--6--6--6--6--11--8--9--9--9--9--9--9--12--14--|
C#||--x--x--x--x--x--x--x---x--x--x--x--x--x--x--x---x---|
G#||--4--4--4--4--4--4--9---6--7--7--7--7--7--7--10--12--|
D#||-----------------------------------------------------|

D#||-----------------------------------------------------|
A#||-----------------------------------------------------|
F#||--13--13--13--13--13--13--9--9--9--9--9--9--9--9--9--|
C#||--x---x---x---x---x---x---x--x--x--x--x--x--x--x--x--|
G#||--11--11--11--11--11--11--7--7--7--7--7--7--7--7--7--|
D#||-----------------------------------------------------|

D#||-----------------------------------------------------|
A#||-----------------------------------------------------|
F#||--6--6--6--6--6--6--11--8--9--9--9--9--9--9--12--14--|
C#||--x--x--x--x--x--x--x---x--x--x--x--x--x--x--x---x---|
G#||--4--4--4--4--4--4--9---6--7--7--7--7--7--7--10--12--|
D#||-----------------------------------------------------|

D#||------------------------------------------------------------------|
A#||------------------------------------------------------------------|
F#||--13--13--13--13--13--13--13--9---9---9---9---9-------------------|
C#||--x---x---x---x---x---x---x---x---x---x---x---x---11--11--13--13--|
G#||--11--11--11--11--11--11--11--14--14--14--14--14------------------|
D#||------------------------------------------------------------------|

Guitar 2:
D#||--------------------------------------------------|
A#||--------------------------------------------------|
F#||--6--6--6--6--6--6--6--6--6--6--6--6--6--6--6--6--|
C#||--6--6--6--6--6--6--6--6--6--6--6--6--6--6--6--6--|
G#||--4--4--4--4--4--4--4--3--3--3--3--3--3--3--3--3--|
D#||--------------------------------------------------|

D#||--------------------------------------------------|
A#||--------------------------------------------------|
F#||-----------------------2--2--2--2--2--2--2--2--2--|
C#||--2--2--2--2--2--2--2--2--2--2--2--2--2--2--2--2--|
G#||--2--2--2--2--2--2--2--0--0--0--0--0--0--0--0--0--|
D#||--0--0--0--0--0--0--0-----------------------------|

D#||--------------------------------------------------|
A#||--------------------------------------------------|
F#||--6--6--6--6--6--6--6--6--6--6--6--6--6--6--6--6--|
C#||--6--6--6--6--6--6--6--6--6--6--6--6--6--6--6--6--|
G#||--4--4--4--4--4--4--4--3--3--3--3--3--3--3--3--3--|
D#||--------------------------------------------------|

D#||--------------------------------------------------|
A#||--------------------------------------------------|
F#||--2--2--2--2--2--2--2--2--2-----------------------|
C#||--2--2--2--2--2--2--2--2--2--2--2--2--2--2--2--2--|
G#||--0--0--0--0--0--0--0--0--0--2--2--2--2--2--2--2--|
D#||-----------------------------0--0--0--0--0--0--0--|



Outro
Guitar 1:
D#||----------------------------------------------------|
A#||----------------------------------------------------|
F#||--9-9-9-9-9-9-9-8~---8-8-8-8-8-8-8------------------|
C#||-----------------------------------9-9-9-9-9-9-6-9--|
G#||----------------------------------------------------|
D#||----------------------------------------------------|

D#||--------------------------------------------------------|
A#||--------------------------------------------------------|
F#||--6--66666666666--8-8-9-9-9-9-9-9-9-8~---8-8-8-8-8-8-8--|
C#||--------------------------------------------------------|
G#||--------------------------------------------------------|
D#||--------------------------------------------------------|

D#||-----------------------------------|
A#||-----------------------------------|
F#||-----------------------------------|
C#||--9-9-9-9-9-9-9-9-9-9-9-9-9-9-9-9--|
G#||-----------------------------------|
D#||-----------------------------------|

Guitar 2:
D#||-----------------------------------------------------------|
A#||-----------------------------------------------------------|
F#||--13-13--9-9--13-14-13-11----9-9-9---13h14-11h13-13--------|
C#||--x--x---x-x--x--x--x--x-----x-x-x------------------14-14--|
G#||--11-11--7-7--11-12-11-9-----7-7-7-------------------------|
D#||-----------------------------------------------------------|

D#||---------------------------------------|
A#||---------------------------------------|
F#||-----11--------------------------------|
C#||--14----13-14-11-11-11-11--------------|
G#||--------------------------14-14-12-12--|
D#||---------------------------------------|

D#||-------------------------------------------------------------|
A#||-------------------------------------------------------------|
F#||--13-13--9-9--13-14-13-11----13-13-13---16-14----13-13-------|
C#||--x--x---x-x--x--x--x--x-----x--x--x----------16------14-14--|
G#||--11-11--7-7--11-12-11-9-----11-11-11------------------------|
D#||-------------------------------------------------------------|

D#||---------------------------------------|
A#||---------------------------------------|
F#||---------------------------------------|
C#||--14h16-13-14-14-14-14-14-14-14-14-14--|
G#||---------------------------------------|
D#||---------------------------------------|

Guitar 3:
D#||-------------------------------------------------------------------|
A#||-------------------------------------------------------------------|
F#||-------------------------------------------------------------------|
C#||--6-6-6-6-6-6-6-6---6-6-6-6-6-6-6-------------2-2-2-2-2-2-2-2-4-4--|
G#||--4-4-4-4-4-4-4-3---3-3-3-3-3-3-3-2-2-2-2-2-2-0-0-0-0-0-0-0-0-2-2--|
D#||----------------------------------0-0-0-0-0-0----------------------|

D#||-------------------------------------------------------------------|
A#||-------------------------------------------------------------------|
F#||-------------------------------------------------------------------|
C#||--6-6-6-6-6-6-6-6---6-6-6-6-6-6-6-2-2-2-2-2-2-2-2-2-2-2-2-2-2-2-2--|
G#||--4-4-4-4-4-4-4-3---3-3-3-3-3-3-3-0-0-0-0-0-0-0-2-2-2-2-2-2-2-2-2--|
D#||------------------------------------------------0-0-0-0-0-0-0-0-0--|



Tablature Legend
----------------
 h   - hammer-on
 p   - pull-off
 b   - bend
 r   - release bend
 *   - pinch harmonic
 '   - natural harmonic
 x   - mute note
 .   - palm mute
 /   - slide down
    - slide up
Tablature player for this song:
 
 
Silverstein - To Live And To Lose Tab :: indexed at Ultimate Guitar.
To Live And To Lose tabs @ 911Tabs

Quick tip, so you can enjoy To Live And To Lose Tab even more:

You might want to transpose the song if it is too high or too low for you to sing. Just click the desired option while playing a song and all the chords will automatically be transponded into a new key.

Show us your talent, perform To Live And To Lose Tab!

Here you can post a video or audio performance. Tell me more ...
Where can we find your performance? Tell me more ...
Your comment:
Please, log in to post your performance.