Artists by letter: A B C D E F G H I J K L M N O P Q R S T U V W X Y Z 0-9
 
Whom Shall I Fear Tab
-----------------------------------------------------------------------------
                             Whom Shall I Fear Chris Tomlin
-----------------------------------------------------------------------------
E-mail:cahhenry@gmail.com

Standard Tuning

Intro:

e|--------------------------10--------|--------------------------------------|
B|-----6---8-6-8------------------8---|---6---8-6-8--------------------------|
G|---5---5---------(x3)---------------|-5---5--------(x3)-4h5p4------5-------|
D|------------------------------------|--------------------------7--5--------|
A|------------------------------------|--------------------------------------|
E|------------------------------------|--------------------------------------|

Verse:

e|---------9----10-----------------------------------------------------------|
B|-5---5----------------------5---5---5---5---6---6---6----------------------|
G|---5---5---5------5---(x4)----5---5---5---5---5---5------------------------|
D|---------------------------------------------------------------------------|
A|---------------------------------------------------------------------------|
E|---------------------------------------------------------------------------|

e|---------9----10-----------------------------------------------------------|
B|-5---5----------------------5---5---5---5---6---6---6----------------------|
G|---5---5---5------5---(x4)----5---5---5---5---5---5------------------------|
D|---------------------------------------------------------------------------|
A|---------------------------------------------------------------------------|
E|---------------------------------------------------------------------------|

Chorus 1:

It sounds like the guitarist is playing a constant C (or 8) on the 1 string. But playing 
power chords are nicer.

Am7         G       C
I know who goes before me
Am7         G       C
I know who stands behind
Am7         F                     G     C
The God of angel armies is always by my side
Am7         G       C
The One who reigns forever
Am7      G        C
He is a friend of mine
Am7         F                      G     C
The God of angel armies is always by my side

Repeat first half of intro, then onto verse 2.



Verse 2:

e|---8-8-8-10-12-10-8--------------------------------------------------------|
B|-8--------------------------8-8-8------------------------------------------|
G|---------------------(x7)--------------------------------------------------|
D|---------------------------------------------------------------------------|
A|---------------------------------------------------------------------------|
E|---------------------------------------------------------------------------|

Then back to Chorus 1

Bridge:

F               C               G
And nothing formed against me shall stand
C                                F
You hold the whole world in Your hands
C                      Am7   G
I'm holding on to Your promises
        F
You are faithful
        G
You are faithful
 F               C               G
And nothing formed against me shall stand
C                                F
You hold the whole world in Your hands
C                      Am7   G
I'm holding on to Your promises
        F
You are faithful
        G
You are faithful
   Am7     G/B
You are faithful

Back to Chorus. After Chorus 1 go to Chorus 2 and end.

Chorus 2:

C
I know who goes before me
G/B
I know who stands behind
Am7                              F
The God of angel armies is always by my side
C
The One who reigns forever
G/B
He is a friend of mine
Am7                              F
The God of angel armies is always by my side
Am7            F                                             C
The God of angel armies is always by my side



Feel free to give constructive criticism because this is my first tab.

God bless,
Caleb



************************************

| /   slide up
|    slide down
| h   hammer-on
| p   pull-off
| ~   vibrato
| +   harmonic
| x   Mute note
| b   Bend

************************************
Tablature player for this song:
 
 
Chris Tomlin - Whom Shall I Fear Tab :: indexed at Ultimate Guitar.
Whom Shall I Fear tabs @ 911Tabs

About the artist behind Whom Shall I Fear Tab:

Christopher Dwayne Tomlin (born May 4, 1972) is a Christian worship leader and songwriter from Grand Saline, Texas, United States. He is a staff member at Austin Stone Community Church and is signed to EMI's sixstepsrecords. Tomlin also leads worship at many Passion events. Some of his most well-known songs are "How Great Is Our God", "Forever", "Famous One", "We Fall Down", and "Holy Is the Lord".

According to the Christian Copyright Licensing International, Tomlin is the most sung Christian artist in the United States.[1] He was awarded Male Vocalist at the 2006 and 2007 Gospel Music Awards, and was named Artist of the Year in 2007 and 2008.

Indexed at Wikipedia.

Show us your talent, perform Whom Shall I Fear Tab!

Here you can post a video or audio performance. Tell me more ...
Where can we find your performance? Tell me more ...
Your comment:
Please, log in to post your performance.