Artists by letter: A B C D E F G H I J K L M N O P Q R S T U V W X Y Z 0-9
 
What If I Was Nothing Tab
----------------------------------------------------------------------------
                         What If I Was Nothing
                           All That Remains
----------------------------------------------------------------------------

Another softer song by All That Remains, but if a metal band can make "soft" sound this 
good, then color me impressed. Enjoy!

Username: dkm817 (same on X box live)
Youtube Cover: http://www.youtube.com/watch?v=03ta2yq_EDU
Email: guitardrums@rockfan.com

Guitar 1 Rhythmic (C# G# C# F# A# D#)
Guitar 2 Lead     (C# G# C# F# A# D#)
Guitar 3 Mixed    (C# F# B  E  G# C#)

NOTE: This was exported off of guitar pro.

Guitar 1

1/
                              W                   W
D#||-------|-------|-------|--8----------------|--L----------------|
A#||-------|-------|-------|-------------------|-------------------|
F#||-------|-------|-------|-------------------|-------------------|
C#||-------|-------|-------|-------------------|-------------------|
G#||-------|-------|-------|-------------------|-------------------|
C#||-------|-------|-------|-------------------|-------------------|

H        H            H        H
-------------------|---------------------|---------------------|
-------------------|-----------8b--------|--8------------------|
-------------------|---------------------|-----------7b--------|
-------------------|---------------------|---------------------|
-------------------|---------------------|---------------------|
-------------------|---------------------|---------------------|

1/
  W                   W                   W                   W
-------------------|-------------------|-------------------|--8----------------|
-------------------|-------------------|-------------------|-------------------|
--7----------------|--L----------------|--L----------------|-------------------|
-------------------|-------------------|-------------------|-------------------|
-------------------|-------------------|-------------------|-------------------|
-------------------|-------------------|-------------------|-------------------|

1/
  W                                               W
--L----------------|-------------------|-------|-------------------|
-------------------|-------------------|-------|-------------------|
-------------------|-------------------|-------|--9----------------|
-------------------|-------------------|-------|-------------------|
-------------------|-------------------|-------|-------------------|
-------------------|-------------------|-------|-------------------|

1/
  W                                               W
-------------------|-------------------|-------|--8----------------|
-------------------|-------------------|-------|-------------------|
--L----------------|-------------------|-------|-------------------|
-------------------|-------------------|-------|-------------------|
-------------------|-------------------|-------|-------------------|
-------------------|-------------------|-------|-------------------|

W
--L----------------|-------------------|-------|-------|
-------------------|-------------------|-------|-------|
-------------------|-------------------|-------|-------|
-------------------|-------------------|-------|-------|
-------------------|-------------------|-------|-------|
-------------------|-------------------|-------|-------|

PM PM PM    PM PM       PM PM    PM
  E  E  E  E  E  E  E  E     E  E  E  E  E  E  E  E
--------------1--------1--|--------1-----1--1--1--1--|
--------------1--------1--|--------1-----1--1--1--1--|
--3-----------3--------3--|--------3-----2--3--2--3--|
--3-----------3--------3--|--------3-----3--3--3--3--|
--1--1--1--1--1--1--1--1--|--1--1--1--1--1--1--1--1--|
--------------------------|--------------------------|

PM PM PM    PM PM       PM PM    PM
  E  E  E  E  E  E  E  E     E  E  E  E  E  E  E  E
--------------------------|--------------------------|
--------------8--------8--|--------8-----8--8--8--8--|
--------------x--------x--|--------x-----x--x--x--x--|
--5-----------7--------7--|--------7-----5--7--5--7--|
--5-----------5--------5--|--------5-----5--5--5--5--|
--5--5--5--5--5--5--5--5--|--5--5--5--5--5--5--5--5--|

PM PM PM    PM PM       PM PM    PM
  E  E  E  E  E  E  E  E     E  E  E  E  E  E  E  E
--------------1--------1--|--------1-----1--1--1--1--|
--------------1--------1--|--------1-----1--1--1--1--|
--3-----------3--------3--|--------3-----2--3--2--3--|
--3-----------3--------3--|--------3-----3--3--3--3--|
--1--1--1--1--1--1--1--1--|--1--1--1--1--1--1--1--1--|
--------------------------|--------------------------|

PM PM PM    PM PM
  E  E  E  E  E  E  E  E     W                   W
--------------------------|-------------------|-------------------|
--------------------------|-------------------|-------------------|
--5-----------5--------5--|-------------------|--3----------------|
--5-----------5--------5--|-------------------|--3----------------|
--3--3--3--3--3--3--3--3--|-------------------|--1----------------|
--------------------------|-------------------|-------------------|

W                   W                   W                   W
-------------------|-------------------|-------------------|-------------------|
-------------------|-------------------|-------------------|-------------------|
--5----------------|-------------------|-------------------|--3----------------|
--5----------------|--0----------------|--3----------------|--3----------------|
--3----------------|--0----------------|--3----------------|--1----------------|
-------------------|--0----------------|--3----------------|-------------------|

W                   W                   W                   W
-------------------|-------------------|-------------------|-------------------|
-------------------|-------------------|-------------------|-------------------|
--5----------------|-------------------|-------------------|--3----------------|
--5----------------|--0----------------|--3----------------|--3----------------|
--3----------------|--0----------------|--3----------------|--1----------------|
-------------------|--0----------------|--3----------------|-------------------|

W                   W                   W                   W
-------------------|-------------------|-------------------|-------------------|
-------------------|-------------------|-------------------|-------------------|
--5----------------|-------------------|-------------------|--5----------------|
--5----------------|--0----------------|--3----------------|--5----------------|
--3----------------|--0----------------|--3----------------|--3----------------|
-------------------|--0----------------|--3----------------|-------------------|

PM                                            v
  E  E  E  E  E  E  E  E     W                   H        Q    E  E
--------------------------|-------------------|-------------------5--|
--------------------------|-------------------|-------------------3--|
--5-----------------2--3--|--L----------------|--L--------L----L--2--|
--5-----------------2--3--|--L----------------|--L--------L----L--0--|
--3-----------------0--1--|--L----------------|--L--------L----L--0--|
--------------------------|-------------------|----------------------|

W                   W                   W                   W
-------------------|--L----------------|--L----------------|--L----------------|
-------------------|--L----------------|--L----------------|--L----------------|
-------------------|--L----------------|--L----------------|--L----------------|
-------------------|--L----------------|--L----------------|--L----------------|
-------------------|--L----------------|--L----------------|--L----------------|
--0----------------|--L----------------|--L----------------|--L----------------|

-------------------|-------------------|-------------------|
-------------------|-------------------|-------------------|
-------------------|-------------------|-------------------|
-------------------|-------------------|-------------------|
-------------------|-------------------|-------------------|
-------------------|-------------------|-------------------|

v
  S S Q    E  E  E  E  E     W                   W
-----------------------5--|-------------------|--L----------------|
-----------------------3--|-------------------|--L----------------|
-----------------------2--|-------------------|--L----------------|
--2-3-2----L-----------0--|-------------------|--L----------------|
--------------3-----0--0--|-------------------|--L----------------|
-----------------5--------|--0----------------|--L----------------|

W                   W
--L----------------|--L----------------|-------------------|-------------------|
--L----------------|--L----------------|-------------------|-------------------|
--L----------------|--L----------------|-------------------|-------------------|
--L----------------|--L----------------|-------------------|-------------------|
--L----------------|--L----------------|-------------------|-------------------|
--L----------------|--L----------------|-------------------|-------------------|

PM PM PM    PM PM
                      H        Q      Q        E  E  E  E  E  E  E  E
-------------------|------------------------|--------------1--------1--|
-------------------|------------------------|--------------1--------1--|
-------------------|------------------------|--3-----------3--------3--|
-------------------|----------------/12----|--3-----------3--------3--|
-------------------|----------------/12----|--1--1--1--1--1--1--1--1--|
-------------------|----------------/12----|--------------------------|

PM PM    PM                   PM PM PM    PM PM
  E  E  E  E  E  E  E  E     E  E  E  E  E  E  E  E
--------1-----1--1--1--1--|--------------------------|
--------1-----1--1--1--1--|--------------8--------8--|
--------3-----2--3--2--3--|--------------x--------x--|
--------3-----3--3--3--3--|--5-----------7--------7--|
--1--1--1--1--1--1--1--1--|--5-----------5--------5--|
--------------------------|--5--5--5--5--5--5--5--5--|

PM PM    PM                   PM PM PM    PM PM
  E  E  E  E  E  E  E  E     E  E  E  E  E  E  E  E
--------------------------|--------------1--------1--|
--------8-----8--8--8--8--|--------------1--------1--|
--------x-----x--x--x--x--|--3-----------3--------3--|
--------7-----5--7--5--7--|--3-----------3--------3--|
--------5-----5--5--5--5--|--1--1--1--1--1--1--1--1--|
--5--5--5--5--5--5--5--5--|--------------------------|

PM PM    PM                   PM PM PM    PM PM
  E  E  E  E  E  E  E  E     E  E  E  E  E  E  E  E     W
--------1-----1--1--1--1--|--------------------------|-------------------|
--------1-----1--1--1--1--|--------------------------|-------------------|
--------3-----2--3--2--3--|--5-----------5--------5--|-------------------|
--------3-----3--3--3--3--|--5-----------5--------5--|-------------------|
--1--1--1--1--1--1--1--1--|--3--3--3--3--3--3--3--3--|-------------------|
--------------------------|--------------------------|-------------------|

W                   W                   W                   W
-------------------|-------------------|-------------------|-------------------|
-------------------|-------------------|-------------------|-------------------|
--3----------------|--5----------------|-------------------|-------------------|
--3----------------|--5----------------|--0----------------|--3----------------|
--1----------------|--3----------------|--0----------------|--3----------------|
-------------------|-------------------|--0----------------|--3----------------|

W                   W                   W                   W
-------------------|-------------------|-------------------|-------------------|
-------------------|-------------------|-------------------|-------------------|
--3----------------|--5----------------|-------------------|-------------------|
--3----------------|--5----------------|--0----------------|--3----------------|
--1----------------|--3----------------|--0----------------|--3----------------|
-------------------|-------------------|--0----------------|--3----------------|

W                   W                   W                   W
-------------------|-------------------|-------------------|-------------------|
-------------------|-------------------|-------------------|-------------------|
--3----------------|--5----------------|-------------------|-------------------|
--3----------------|--5----------------|--0----------------|--3----------------|
--1----------------|--3----------------|--0----------------|--3----------------|
-------------------|-------------------|--0----------------|--3----------------|

PM
  W                   E  E  E  E  E  E  E  E     W
-------------------|--------------------------|-------------------|
-------------------|--------------------------|-------------------|
--5----------------|--5-----------------2--3--|--L----------------|
--5----------------|--5-----------------2--3--|--L----------------|
--3----------------|--3-----------------0--1--|--L----------------|
-------------------|--------------------------|-------------------|

v
  H        Q    E  E     W                   W
-------------------5--|-------------------|--L----------------|
-------------------3--|-------------------|--L----------------|
--L--------L----L--2--|-------------------|--L----------------|
--L--------L----L--0--|-------------------|--L----------------|
--L--------L----L--0--|-------------------|--L----------------|
----------------------|--0----------------|--L----------------|

W                   W
--L----------------|--L----------------|-------------------|-------------------|
--L----------------|--L----------------|-------------------|-------------------|
--L----------------|--L----------------|-------------------|-------------------|
--L----------------|--L----------------|-------------------|-------------------|
--L----------------|--L----------------|-------------------|-------------------|
--L----------------|--L----------------|-------------------|-------------------|

v
                      H        Q    E  E     W
-------------------|-------------------5--|-------------------|
-------------------|-------------------3--|-------------------|
-------------------|-------------------2--|-------------------|
-------------------|-------------------0--|-------------------|
-------------------|-------------------0--|-------------------|
-------------------|----------------------|--0----------------|

W                   W                   W
--L----------------|--L----------------|--L----------------|-------------------|
--L----------------|--L----------------|--L----------------|-------------------|
--L----------------|--L----------------|--L----------------|-------------------|
--L----------------|--L----------------|--L----------------|-------------------|
--L----------------|--L----------------|--L----------------|-------------------|
--L----------------|--L----------------|--L----------------|-------------------|

-------------------|-------------------|-------------------|
-------------------|-------------------|-------------------|
-------------------|-------------------|-------------------|
-------------------|-------------------|-------------------|
-------------------|-------------------|-------------------|
-------------------|-------------------|-------------------|

PM PM PM    PM PM       PM PM    PM
  E  E  E  E  E  E  E  E     E  E  E  E  E  E  E  E
--------------1--------1--|--------1-----1--1--1--1--|
--------------1--------1--|--------1-----1--1--1--1--|
--3-----------3--------3--|--------3-----2--3--2--3--|
--3-----------3--------3--|--------3-----3--3--3--3--|
--1--1--1--1--1--1--1--1--|--1--1--1--1--1--1--1--1--|
--------------------------|--------------------------|

PM PM PM    PM PM       PM PM    PM
  E  E  E  E  E  E  E  E     E  E  E  E  E  E  E  E
--------------------------|--------------------------|
--------------8--------8--|--------8-----8--8--8--8--|
--------------x--------x--|--------x-----x--x--x--x--|
--5-----------7--------7--|--------7-----5--7--5--7--|
--5-----------5--------5--|--------5-----5--5--5--5--|
--5--5--5--5--5--5--5--5--|--5--5--5--5--5--5--5--5--|

PM PM PM    PM PM       PM PM    PM
  E  E  E  E  E  E  E  E     E  E  E  E  E  E  E  E
--------------1--------1--|--------1-----1--1--1--1--|
--------------1--------1--|--------1-----1--1--1--1--|
--3-----------3--------3--|--------3-----2--3--2--3--|
--3-----------3--------3--|--------3-----3--3--3--3--|
--1--1--1--1--1--1--1--1--|--1--1--1--1--1--1--1--1--|
--------------------------|--------------------------|

PM PM PM    PM PM       PM PM    PM
  E  E  E  E  E  E  E  E     E  E  E  E  E  E  E  E
--------------------------|--------------------------|
--------------------------|--------------------------|
--5-----------5--------5--|--------5-----5--5--5--5--|
--5-----------5--------5--|--------5-----5--5--5--5--|
--3--3--3--3--3--3--3--3--|--3--3--3--3--3--3--3--3--|
--------------------------|--------------------------|

E  E  E  E  E  E  E  E     E  E  E  E  E  E  E  E
--------------------------|--------------------------|
--------------------------|--------------------------|
--------------------------|--------------------------|
--7--7--7--7--7--7--7--7--|--7--7--7--7--7--7--7--7--|
--------------------------|--------------------------|
--------------------------|--------------------------|

E  E  E  E  E  E  E  E     E  E  E  E  E  E  E  E
--------------------------|--------------------------|
--------------------------|--------------------------|
--------------------------|--------------------------|
--7--7--7--7--7--7--7--7--|--7--7--7--7--7--7--7--7--|
--------------------------|--------------------------|
--------------------------|--------------------------|

E  E  E  E  E  E  E  E     E  E  E  E  E  E  E  E
--------------------------|--------------------------|
--------------------------|--------------------------|
--------------------------|--------------------------|
--7--7--7--7--7--7--7--7--|--7--7--7--7--7--7--7--7--|
--------------------------|--------------------------|
--------------------------|--------------------------|

E  E  E  E  E  E  E  E     W                   W
--------------------------|-------------------|-------------------|
--8--8--8--8--8--8--8--8--|-------------------|-------------------|
--x--x--x--x--x--x--x--x--|-------------------|--3----------------|
--5--5--5--5--5--5--5--5--|-------------------|--3----------------|
--------------------------|-------------------|--1----------------|
--------------------------|-------------------|-------------------|

W                   W                   W                   W
-------------------|-------------------|-------------------|-------------------|
-------------------|-------------------|-------------------|-------------------|
--5----------------|-------------------|-------------------|--3----------------|
--5----------------|--0----------------|--3----------------|--3----------------|
--3----------------|--0----------------|--3----------------|--1----------------|
-------------------|--0----------------|--3----------------|-------------------|

W                   W                   W                   W
-------------------|-------------------|-------------------|-------------------|
-------------------|-------------------|-------------------|-------------------|
--5----------------|-------------------|-------------------|--3----------------|
--5----------------|--0----------------|--3----------------|--3----------------|
--3----------------|--0----------------|--3----------------|--1----------------|
-------------------|--0----------------|--3----------------|-------------------|

W                   W                   W                   W
-------------------|-------------------|-------------------|-------------------|
-------------------|-------------------|-------------------|-------------------|
--5----------------|-------------------|-------------------|--5----------------|
--5----------------|--0----------------|--3----------------|--5----------------|
--3----------------|--0----------------|--3----------------|--3----------------|
-------------------|--0----------------|--3----------------|-------------------|

H        Q    E  E     Q    Q    E  Q    E     E  E  E  E    H
----------------------|-----------------------|--------------------------|
----------------------|-----------------------|--------------------------|
--5--------L----L--3--|--L----3----3--3----3--|--3-----------------------|
--5--------L----L--3--|--L----3----3--3----3--|--3-----------/12--------|
--3--------L----L--1--|--L----1----1--1----1--|--1-----------/12--------|
----------------------|-----------------------|--------------/12--------|

W                   W                   W                   W
-------------------|-------------------|-------------------|-------------------|
-------------------|-------------------|-------------------|-------------------|
--3----------------|--5----------------|-------------------|-------------------|
--3----------------|--5----------------|--0----------------|--3----------------|
--1----------------|--3----------------|--0----------------|--3----------------|
-------------------|-------------------|--0----------------|--3----------------|

W                   W                   W                   W
-------------------|-------------------|-------------------|-------------------|
-------------------|-------------------|-------------------|-------------------|
--3----------------|--5----------------|-------------------|-------------------|
--3----------------|--5----------------|--0----------------|--3----------------|
--1----------------|--3----------------|--0----------------|--3----------------|
-------------------|-------------------|--0----------------|--3----------------|

W                   W                   W                   W
-------------------|-------------------|-------------------|-------------------|
-------------------|-------------------|-------------------|-------------------|
--3----------------|--5----------------|-------------------|-------------------|
--3----------------|--5----------------|--0----------------|--3----------------|
--1----------------|--3----------------|--0----------------|--3----------------|
-------------------|-------------------|--0----------------|--3----------------|

PM
  W                   E  E  E  E  E  E  E  E     W
-------------------|--------------------------|-------------------|
-------------------|--------------------------|-------------------|
--5----------------|--5-----------------2--3--|--L----------------|
--5----------------|--5-----------------2--3--|--L----------------|
--3----------------|--3-----------------0--1--|--L----------------|
-------------------|--------------------------|-------------------|

W                   W                   W
-------------------|-------------------|-------------------|-------------------|
-------------------|-------------------|-------------------|-------------------|
--L----------------|--L----------------|--L----------------|-------------------|
--L----------------|--L----------------|--L----------------|-------------------|
--L----------------|--L----------------|--L----------------|-------------------|
-------------------|-------------------|-------------------|-------------------|

-------------------|-------------------|-------------------|-------------------|
-------------------|-------------------|-------------------|-------------------|
-------------------|-------------------|-------------------|-------------------|
-------------------|-------------------|-------------------|-------------------|
-------------------|-------------------|-------------------|-------------------|
-------------------|-------------------|-------------------|-------------------|

-------------------|-------------------|-------------------||
-------------------|-------------------|-------------------||
-------------------|-------------------|-------------------||
-------------------|-------------------|-------------------||
-------------------|-------------------|-------------------||
-------------------|-------------------|-------------------||



Guitar 2

D#||-------|-------|-------|-------|-------|-------|-------|-------|-------|
A#||-------|-------|-------|-------|-------|-------|-------|-------|-------|
F#||-------|-------|-------|-------|-------|-------|-------|-------|-------|
C#||-------|-------|-------|-------|-------|-------|-------|-------|-------|
G#||-------|-------|-------|-------|-------|-------|-------|-------|-------|
C#||-------|-------|-------|-------|-------|-------|-------|-------|-------|

-------|-------|-------|-------|-------|-------|-------|-------|-------|-------|
-------|-------|-------|-------|-------|-------|-------|-------|-------|-------|
-------|-------|-------|-------|-------|-------|-------|-------|-------|-------|
-------|-------|-------|-------|-------|-------|-------|-------|-------|-------|
-------|-------|-------|-------|-------|-------|-------|-------|-------|-------|
-------|-------|-------|-------|-------|-------|-------|-------|-------|-------|

PM PM PM    PM PM
                                          E  E  E  E  E  E  E  E
-------|-------|-------|-------|-------|--------------1--------1--|
-------|-------|-------|-------|-------|--------------1--------1--|
-------|-------|-------|-------|-------|--3-----------3--------3--|
-------|-------|-------|-------|-------|--3-----------3--------3--|
-------|-------|-------|-------|-------|--1--1--1--1--1--1--1--1--|
-------|-------|-------|-------|-------|--------------------------|

PM PM    PM                   PM PM PM    PM PM
  E  E  E  E  E  E  E  E     E  E  E  E  E  E  E  E
--------1-----1--1--1--1--|--------------------------|
--------1-----1--1--1--1--|--------------8--------8--|
--------3-----2--3--2--3--|--------------x--------x--|
--------3-----3--3--3--3--|--5-----------7--------7--|
--1--1--1--1--1--1--1--1--|--5-----------5--------5--|
--------------------------|--5--5--5--5--5--5--5--5--|

PM PM    PM                   PM PM PM    PM PM
  E  E  E  E  E  E  E  E     E  E  E  E  E  E  E  E
--------------------------|--------------1--------1--|
--------8-----8--8--8--8--|--------------1--------1--|
--------x-----x--x--x--x--|--3-----------3--------3--|
--------7-----5--7--5--7--|--3-----------3--------3--|
--------5-----5--5--5--5--|--1--1--1--1--1--1--1--1--|
--5--5--5--5--5--5--5--5--|--------------------------|

PM PM    PM                   PM PM PM    PM PM
  E  E  E  E  E  E  E  E     E  E  E  E  E  E  E  E
--------1-----1--1--1--1--|--------------------------|
--------1-----1--1--1--1--|--------------------------|
--------3-----2--3--2--3--|--5-----------5--------5--|
--------3-----3--3--3--3--|--5-----------5--------5--|
--1--1--1--1--1--1--1--1--|--3--3--3--3--3--3--3--3--|
--------------------------|--------------------------|

PM                              PM
   E   E   E   E   E  E  E  E      E   E   E   E   E   E   E   E
-------------------------------|----------------------------------|
-------------------------------|----------------------------------|
---x--10--10--10--10--9--9--9--|---x--10--10--10--10--10--10--10--|
---x---x---x---x---x--x--x--x--|---x---x---x---x---x---x---x---x--|
---x---8---8---8---8--7--7--7--|---x---8---8---8---8---8---8---8--|
-------------------------------|----------------------------------|

PM
   E   E   E   E   E  E  E  E     E  E  E  E  E  E  E  E
-------------------------------|--------------------------|
-------------------------------|--------------------------|
---x--10--10--10--10--9--9--9--|--x--2--2--2--2--2--2--x--|
---x---x---x---x---x--x--x--x--|--x--x--x--x--x--x--x--x--|
---x---8---8---8---8--7--7--7--|--x--0--0--0--0--0--0--x--|
-------------------------------|--------------------------|

PM
  E  E  E  E  E  E  E  E      E   E   E   E   E   E   E   E
--------------------------|----------------------------------|
--------------------------|----------------------------------|
--2--2--x--2--2--x--2--2--|---x--10--10--10--10--10--10--10--|
--x--x--x--x--x--x--x--x--|---x---x---x---x---x---x---x---x--|
--0--0--x--0--0--x--0--0--|---x---8---8---8---8---8---8---8--|
--------------------------|----------------------------------|

PM
   E   E   E   E   E  E  E  E     E  E  E  E  E  E  E  E
-------------------------------|--------------------------|
-------------------------------|--------------------------|
---x--10--10--10--10--9--9--9--|--x--2--2--2--2--2--2--x--|
---x---x---x---x---x--x--x--x--|--x--x--x--x--x--x--x--x--|
---x---8---8---8---8--7--7--7--|--x--0--0--0--0--0--0--x--|
-------------------------------|--------------------------|

PM
  E  E  E  E  E  E  E  E      E   E   E   E   E   E   E   E
--------------------------|----------------------------------|
--------------------------|----------------------------------|
--2--2--x--2--2--x--2--2--|---x--10--10--10--10--10--10--10--|
--x--x--x--x--x--x--x--x--|---x---x---x---x---x---x---x---x--|
--0--0--x--0--0--x--0--0--|---x---8---8---8---8---8---8---8--|
--------------------------|----------------------------------|

PM
   E   E   E   E   E  E  E  E     E  E  E  E  E  E  E  E
-------------------------------|--------------------------|
-------------------------------|--------------------------|
---x--10--10--10--10--9--9--9--|--x--2--2--2--2--2--2--x--|
---x---x---x---x---x--x--x--x--|--x--x--x--x--x--x--x--x--|
---x---8---8---8---8--7--7--7--|--x--0--0--0--0--0--0--x--|
-------------------------------|--------------------------|

PM       PM             PM PM PM PM PM PM PM
  E  E  E  E  E  E  E  E     E  E  E  E  E  E  E  E
--------------------------|--------------------------|
--------------------------|--------------------------|
--2--2--x--2--2--x--2--2--|--5--5--5--5--5--5--5--5--|
--x--x--x--x--x--x--x--x--|--5--5--5--5--5--5--5--5--|
--0--0--x--0--0--x--0--0--|--3--3--3--3--3--3--3--3--|
--------------------------|--------------------------|

PM       PM PM
  E  E  E  E  E  E  E  E     H        H           H        H
--------------------------|-----------1--------|--0-----------------|
--------------------------|--------------------|-----------1--------|
--2--2--2--2--2--2--2-----|--------------------|--------------------|
--x--x--x--x--x--x--x-----|--------------------|--------------------|
--0--0--0--0--0--0--0-----|--------------------|--------------------|
--------------------------|--------------------|--------------------|

W                   W                   W
-------------------|-------------------|-------------------|-------------------|
--3----------------|--L----------------|--L----------------|-------------------|
-------------------|-------------------|-------------------|-------------------|
-------------------|-------------------|-------------------|-------------------|
-------------------|-------------------|-------------------|-------------------|
-------------------|-------------------|-------------------|-------------------|

Q    E  E  E  E  E  E     E  E  E  E  E  E  E  E     Q    E  E  E  E  E  E
-------5--------5--------|--5--------5-----------5--|-------5--------5--------|
----------6--------6-----|-----6--------6-----6-----|----------6--------6-----|
--3----------3--------3--|--------3--------3--------|--3----------3--------3--|
-------------------------|--------------------------|-------------------------|
-------------------------|--------------------------|-------------------------|
-------------------------|--------------------------|-------------------------|

E  E  E  E  E  E  Q
--------3--------3--L----|-------|-------|-------|-------|
-----3--------3----------|-------|-------|-------|-------|
--5--------5-------------|-------|-------|-------|-------|
-------------------------|-------|-------|-------|-------|
-------------------------|-------|-------|-------|-------|
-------------------------|-------|-------|-------|-------|

Q    E  E  E  E  E  E     E  E  E  E  E  E  E  E     Q    E  E  E  E  E  E
-------5--------5--------|--5--------5-----------5--|-------5--------5--------|
----------6--------6-----|-----6--------6-----6-----|----------6--------6-----|
--3----------3--------3--|--------3--------3--------|--3----------3--------3--|
-------------------------|--------------------------|-------------------------|
-------------------------|--------------------------|-------------------------|
-------------------------|--------------------------|-------------------------|

PM PM PM    PM PM       PM PM    PM
  E  E  E  E  E  E  Q       E  E  E  E  E  E  E  E     E  E  E  E  E  E  E  E
--------3--------3--L----|--------------------------|--------------------------|
-----3--------3----------|--------------------------|--------------------------|
--5--------5-------------|--7-----------7--------7--|--------7-----7--7--7--7--|
-------------------------|--3--3--3--3--3--3--3--3--|--3--3--3--3--3--3--3--3--|
-------------------------|--------------------------|--------------------------|
-------------------------|--------------------------|--------------------------|

PM PM PM    PM PM       PM PM    PM
  E  E  E  E  E  E  E  E     E  E  E  E  E  E  E  E
--------------------------|--------------------------|
--------------------------|--------------------------|
--7-----------7--------7--|--------7-----7--7--7--7--|
--5--5--5--5--5--5--5--5--|--5--5--5--5--5--5--5--5--|
--------------------------|--------------------------|
--------------------------|--------------------------|

PM PM PM    PM PM       PM PM    PM
  E  E  E  E  E  E  E  E     E  E  E  E  E  E  E  E
--------------------------|--------------------------|
--------------------------|--------------------------|
--7-----------7--------7--|--------7-----7--7--7--7--|
--3--3--3--3--3--3--3--3--|--3--3--3--3--3--3--3--3--|
--------------------------|--------------------------|
--------------------------|--------------------------|

PM  PM  PM      PM  PM         PM
   E   E   E   E   E   E   E   E      E   E   E   E   E  E  E  E
----------------------------------|-------------------------------|
----------------------------------|-------------------------------|
---9---------------9-----------9--|---x--10--10--10--10--9--9--9--|
--10--10--10--10--10--10--10--10--|---x---x---x---x---x--x--x--x--|
----------------------------------|---x---8---8---8---8--7--7--7--|
----------------------------------|-------------------------------|

PM                                 PM
   E   E   E   E   E   E   E   E      E   E   E   E   E  E  E  E
----------------------------------|-------------------------------|
----------------------------------|-------------------------------|
---x--10--10--10--10--10--10--10--|---x--10--10--10--10--9--9--9--|
---x---x---x---x---x---x---x---x--|---x---x---x---x---x--x--x--x--|
---x---8---8---8---8---8---8---8--|---x---8---8---8---8--7--7--7--|
----------------------------------|-------------------------------|

E  E  E  E  E  E  E  E     E  E  E  E  E  E  E  E
--------------------------|--------------------------|
--------------------------|--------------------------|
--x--2--2--2--2--2--2--x--|--2--2--x--2--2--x--2--2--|
--x--x--x--x--x--x--x--x--|--x--x--x--x--x--x--x--x--|
--x--0--0--0--0--0--0--x--|--0--0--x--0--0--x--0--0--|
--------------------------|--------------------------|

PM                                 PM
   E   E   E   E   E   E   E   E      E   E   E   E   E  E  E  E
----------------------------------|-------------------------------|
----------------------------------|-------------------------------|
---x--10--10--10--10--10--10--10--|---x--10--10--10--10--9--9--9--|
---x---x---x---x---x---x---x---x--|---x---x---x---x---x--x--x--x--|
---x---8---8---8---8---8---8---8--|---x---8---8---8---8--7--7--7--|
----------------------------------|-------------------------------|

E  E  E  E  E  E  E  E     E  E  E  E  E  E  E  E
--------------------------|--------------------------|
--------------------------|--------------------------|
--x--2--2--2--2--2--2--x--|--2--2--x--2--2--x--2--2--|
--x--x--x--x--x--x--x--x--|--x--x--x--x--x--x--x--x--|
--x--0--0--0--0--0--0--x--|--0--0--x--0--0--x--0--0--|
--------------------------|--------------------------|

PM                                 PM
   E   E   E   E   E   E   E   E      E   E   E   E   E  E  E  E
----------------------------------|-------------------------------|
----------------------------------|-------------------------------|
---x--10--10--10--10--10--10--10--|---x--10--10--10--10--9--9--9--|
---x---x---x---x---x---x---x---x--|---x---x---x---x---x--x--x--x--|
---x---8---8---8---8---8---8---8--|---x---8---8---8---8--7--7--7--|
----------------------------------|-------------------------------|

PM       PM
  E  E  E  E  E  E  E  E     E  E  E  E  E  E  E  E
--------------------------|--------------------------|
--------------------------|--------------------------|
--x--2--2--2--2--2--2--x--|--2--2--x--2--2--x--2--2--|
--x--x--x--x--x--x--x--x--|--x--x--x--x--x--x--x--x--|
--x--0--0--0--0--0--0--x--|--0--0--x--0--0--x--0--0--|
--------------------------|--------------------------|

PM PM PM PM PM PM PM          PM       PM PM
  E  E  E  E  E  E  E  E     E  E  E  E  E  E  E  E     H        H
--------------------------|--------------------------|-----------1--------|
--------------------------|--------------------------|--------------------|
--5--5--5--5--5--5--5--5--|--2--2--2--2--2--2--2-----|--------------------|
--5--5--5--5--5--5--5--5--|--x--x--x--x--x--x--x-----|--------------------|
--3--3--3--3--3--3--3--3--|--0--0--0--0--0--0--0-----|--------------------|
--------------------------|--------------------------|--------------------|

PM PM PM PM
  H        H             H         Q     Q       H        E  E  E  E
--0-----------------|-------------------------|-----------------------|
-----------1--------|-------------------------|-----------------------|
--------------------|-------------------------|-----------------------|
--------------------|-------------------------|-----------------5--6--|
--------------------|--5~--------L---------|-----------5--8--------|
--------------------|-------------------------|-----------------------|

Q    E    E  H           H         Q    E  S S    H        Q    E  E
------------------------|------------------------|----------------------|
------------------------|------------------------|----------------------|
------------------------|------------------------|----------------------|
--7----L--/10--7--------|--L--------10----L--8-7-|--8--------L----7--5--|
------------------------|------------------------|----------------------|
------------------------|------------------------|----------------------|

H        E  E  E  E     E   E  E  E  E    E   E    E
-----------------------|--------------------------------|
-----------------------|--------------------------------|
-----------------------|--------------------------------|
--L--------L-----------|-----10-------------------------|
--------------8--7--8--|--L------8--7--8S--10-----------|
-----------------------|-----------------------10b--10--|

H        E  E  E  E       Q    E  Q    E   Q       H        E  E  E  E
-------------------------|-----------8----L---L----|--L---------------------|
------------------6--8S--|--10----L--L----L--10----|--L--------------6--8S--|
------------5--7---------|-------------------------|-----------5--7---------|
-------------------------|-------------------------|------------------------|
-------------------------|-------------------------|------------------------|
---L---------------------|-------------------------|------------------------|

Q     E  Q    E  Q        H         Q       E  E      H        Q      E  E
-----------8----L--L-----|--L---------L----8g10--8--|-----------------6g8--6--|
--9b----L--L----L--9b----|--9b--------L-------------|--11--------L------------|
-------------------------|--------------------------|-------------------------|
-------------------------|--------------------------|-------------------------|
-------------------------|--------------------------|-------------------------|
-------------------------|--------------------------|-------------------------|

SH             SH       PM PM PM     PM PM PM
                        |-3-|
   Q     E   E      E   S S S E    E     E  E  E  E   E  E  E  E
--------------------------------------|---------------------------|
--10----11--10----------------4--6--|--L--3--1------------------|
----------------/14--3-5-7---------|-----------2--/5--2--0-----|
--------------------------------------|------------------------3--|
--------------------------------------|---------------------------|
--------------------------------------|---------------------------|

PM PM PM     PM PM
   E  E  E  E   E  E  E  E     W                   W
----------------------------|-------------------|-------------------|
----------------------------|-------------------|-------------------|
----------------------------|-------------------|-------------------|
--/5--3--0------------------|-------------------|-------------------|
------------3--/5--3-----0--|--1----------------|--L----------------|
----------------------6-----|-------------------|-------------------|

PM PM PM    PM PM       PM PM    PM
  E  E  E  E  E  E  E  E     E  E  E  E  E  E  E  E
--------------------------|--------------------------|
--------------8--------8--|--------8-----8--8--8--8--|
--------------x--------x--|--------x-----x--x--x--x--|
--5-----------7--------7--|--------7-----5--7--5--7--|
--5-----------5--------5--|--------5-----5--5--5--5--|
--5--5--5--5--5--5--5--5--|--5--5--5--5--5--5--5--5--|

PM PM PM    PM PM       PM PM    PM
  E  E  E  E  E  E  E  E     E  E  E  E  E  E  E  E
--------------1--------1--|--------1-----1--1--1--1--|
--------------1--------1--|--------1-----1--1--1--1--|
--3-----------3--------3--|--------3-----2--3--2--3--|
--3-----------3--------3--|--------3-----3--3--3--3--|
--1--1--1--1--1--1--1--1--|--1--1--1--1--1--1--1--1--|
--------------------------|--------------------------|

PM PM PM    PM PM       PM PM    PM
  E  E  E  E  E  E  E  E     E  E  E  E  E  E  E  E
--------------------------|--------------------------|
--------------------------|--------------------------|
--5-----------5--------5--|--------5-----5--5--5--5--|
--5-----------5--------5--|--------5-----5--5--5--5--|
--3--3--3--3--3--3--3--3--|--3--3--3--3--3--3--3--3--|
--------------------------|--------------------------|

PM PM PM    PM PM       PM PM    PM
  E  E  E  E  E  E  E  E     E  E  E  E  E  E  E  E
--------------------------|--------------------------|
--------------------------|--------------------------|
--7-----------7--------7--|--------7-----7--7--7--7--|
--3--3--3--3--3--3--3--3--|--3--3--3--3--3--3--3--3--|
--------------------------|--------------------------|
--------------------------|--------------------------|

PM PM PM    PM PM       PM PM    PM
  E  E  E  E  E  E  E  E     E  E  E  E  E  E  E  E
--------------------------|--------------------------|
--------------------------|--------------------------|
--7-----------7--------7--|--------7-----7--7--7--7--|
--5--5--5--5--5--5--5--5--|--5--5--5--5--5--5--5--5--|
--------------------------|--------------------------|
--------------------------|--------------------------|

PM PM PM    PM PM       PM PM    PM
  E  E  E  E  E  E  E  E     E  E  E  E  E  E  E  E
--------------------------|--------------------------|
--------------------------|--------------------------|
--7-----------7--------7--|--------7-----7--7--7--7--|
--3--3--3--3--3--3--3--3--|--3--3--3--3--3--3--3--3--|
--------------------------|--------------------------|
--------------------------|--------------------------|

PM  PM  PM      PM  PM         PM
   E   E   E   E   E   E   E   E      E   E   E   E   E  E  E  E
----------------------------------|-------------------------------|
----------------------------------|-------------------------------|
---9---------------9-----------9--|---x--10--10--10--10--9--9--9--|
--10--10--10--10--10--10--10--10--|---x---x---x---x---x--x--x--x--|
----------------------------------|---x---8---8---8---8--7--7--7--|
----------------------------------|-------------------------------|

PM                                 PM
   E   E   E   E   E   E   E   E      E   E   E   E   E  E  E  E
----------------------------------|-------------------------------|
----------------------------------|-------------------------------|
---x--10--10--10--10--10--10--10--|---x--10--10--10--10--9--9--9--|
---x---x---x---x---x---x---x---x--|---x---x---x---x---x--x--x--x--|
---x---8---8---8---8---8---8---8--|---x---8---8---8---8--7--7--7--|
----------------------------------|-------------------------------|

E  E  E  E  E  E  E  E     E  E  E  E  E  E  E  E
--------------------------|--------------------------|
--------------------------|--------------------------|
--x--2--2--2--2--2--2--x--|--2--2--x--2--2--x--2--2--|
--x--x--x--x--x--x--x--x--|--x--x--x--x--x--x--x--x--|
--x--0--0--0--0--0--0--x--|--0--0--x--0--0--x--0--0--|
--------------------------|--------------------------|

PM                                 PM
   E   E   E   E   E   E   E   E      E   E   E   E   E  E  E  E
----------------------------------|-------------------------------|
----------------------------------|-------------------------------|
---x--10--10--10--10--10--10--10--|---x--10--10--10--10--9--9--9--|
---x---x---x---x---x---x---x---x--|---x---x---x---x---x--x--x--x--|
---x---8---8---8---8---8---8---8--|---x---8---8---8---8--7--7--7--|
----------------------------------|-------------------------------|

E  E  E  E  E  E  E  E     E  E  E  E  E  E  E  E
--------------------------|--------------------------|
--------------------------|--------------------------|
--x--2--2--2--2--2--2--x--|--2--2--x--2--2--x--2--2--|
--x--x--x--x--x--x--x--x--|--x--x--x--x--x--x--x--x--|
--x--0--0--0--0--0--0--x--|--0--0--x--0--0--x--0--0--|
--------------------------|--------------------------|

PM                                 PM
   E   E   E   E   E   E   E   E      E   E   E   E   E  E  E  E
----------------------------------|-------------------------------|
----------------------------------|-------------------------------|
---x--10--10--10--10--10--10--10--|---x--10--10--10--10--9--9--9--|
---x---x---x---x---x---x---x---x--|---x---x---x---x---x--x--x--x--|
---x---8---8---8---8---8---8---8--|---x---8---8---8---8--7--7--7--|
----------------------------------|-------------------------------|

PM       PM
  E  E  E  E  E  E  E  E     E  E  E  E  E  E  E  E
--------------------------|--------------------------|
--------------------------|--------------------------|
--x--2--2--2--2--2--2--x--|--2--2--x--2--2--x--2--2--|
--x--x--x--x--x--x--x--x--|--x--x--x--x--x--x--x--x--|
--x--0--0--0--0--0--0--x--|--0--0--x--0--0--x--0--0--|
--------------------------|--------------------------|

PM                               PM       PM PM
  E  E  E  E  E  E  E  E     E  E  E  E  E  E  E  E     Q    Q    E  Q    E
--------------------------|--------------------------|-----------------------|
--------------------------|--------------------------|-----------------------|
--5--5--5--5--5--5--5--5--|--2--2--2--2--2--2--2--5--|--L----5----5--5----5--|
--5--5--5--5--5--5--5--5--|--x--x--x--x--x--x--x--x--|-------x----x--x----x--|
--3--3--3--3--3--3--3--3--|--0--0--0--0--0--0--0--3--|--L----3----3--3----3--|
--------------------------|--------------------------|-----------------------|

PM       PM                 PM
  E  E  E  E  E  E  E  E      E   E   E   E   E   E   E   E
--------------------------|----------------------------------|
--------------------------|----------------------------------|
--2--2--2--2--2--2--2--2--|---x--10--10--10--10--10--10--10--|
--x--x--x--x--x--x--x--x--|---x---x---x---x---x---x---x---x--|
--0--0--0--0--0--0--0--0--|---x---8---8---8---8---8---8---8--|
--------------------------|----------------------------------|

PM
   E   E   E   E   E  E  E  E     E  E  E  E  E  E  E  E
-------------------------------|--------------------------|
-------------------------------|--------------------------|
---x--10--10--10--10--9--9--9--|--x--2--2--2--2--2--2--x--|
---x---x---x---x---x--x--x--x--|--x--x--x--x--x--x--x--x--|
---x---8---8---8---8--7--7--7--|--x--0--0--0--0--0--0--x--|
-------------------------------|--------------------------|

PM
  E  E  E  E  E  E  E  E      E   E   E   E   E   E   E   E
--------------------------|----------------------------------|
--------------------------|----------------------------------|
--2--2--x--2--2--x--2--2--|---x--10--10--10--10--10--10--10--|
--x--x--x--x--x--x--x--x--|---x---x---x---x---x---x---x---x--|
--0--0--x--0--0--x--0--0--|---x---8---8---8---8---8---8---8--|
--------------------------|----------------------------------|

PM
   E   E   E   E   E  E  E  E     E  E  E  E  E  E  E  E
-------------------------------|--------------------------|
-------------------------------|--------------------------|
---x--10--10--10--10--9--9--9--|--x--2--2--2--2--2--2--x--|
---x---x---x---x---x--x--x--x--|--x--x--x--x--x--x--x--x--|
---x---8---8---8---8--7--7--7--|--x--0--0--0--0--0--0--x--|
-------------------------------|--------------------------|

PM
  E  E  E  E  E  E  E  E      E   E   E   E   E   E   E   E
--------------------------|----------------------------------|
--------------------------|----------------------------------|
--2--2--x--2--2--x--2--2--|---x--10--10--10--10--10--10--10--|
--x--x--x--x--x--x--x--x--|---x---x---x---x---x---x---x---x--|
--0--0--x--0--0--x--0--0--|---x---8---8---8---8---8---8---8--|
--------------------------|----------------------------------|

PM
   E   E   E   E   E  E  E  E     E  E  E  E  E  E  E  E
-------------------------------|--------------------------|
-------------------------------|--------------------------|
---x--10--10--10--10--9--9--9--|--x--2--2--2--2--2--2--x--|
---x---x---x---x---x--x--x--x--|--x--x--x--x--x--x--x--x--|
---x---8---8---8---8--7--7--7--|--x--0--0--0--0--0--0--x--|
-------------------------------|--------------------------|

PM       PM             PM PM PM PM PM PM PM
  E  E  E  E  E  E  E  E     E  E  E  E  E  E  E  E
--------------------------|--------------------------|
--------------------------|--------------------------|
--2--2--x--2--2--x--2--2--|--5--5--5--5--5--5--5--5--|
--x--x--x--x--x--x--x--x--|--5--5--5--5--5--5--5--5--|
--0--0--x--0--0--x--0--0--|--3--3--3--3--3--3--3--3--|
--------------------------|--------------------------|

PM       PM PM
  E  E  E  E  E  E  E  E     H        H           H        H
--------------------------|-----------1--------|--0-----------------|
--------------------------|--------------------|-----------1--------|
--2--2--2--2--2--2--2-----|--------------------|--------------------|
--x--x--x--x--x--x--x-----|--------------------|--------------------|
--0--0--0--0--0--0--0-----|--------------------|--------------------|
--------------------------|--------------------|--------------------|

H        H           H        H           H        H
-----------1--------|--0-----------------|-----------1--------|
--3-----------------|-----------1--------|--3-----------------|
--------------------|--------------------|--------------------|
--------------------|--------------------|--------------------|
--------------------|--------------------|--------------------|
--------------------|--------------------|--------------------|

H        H           H        H           H        H
--0-----------------|-----------1--------|--0-----------------|
-----------1--------|--3-----------------|-----------1--------|
--------------------|--------------------|--------------------|
--------------------|--------------------|--------------------|
--------------------|--------------------|--------------------|
--------------------|--------------------|--------------------|

H        H           H        H           H        H
-----------1--------|--0-----------------|-----------1--------|
--3-----------------|-----------1--------|--3-----------------|
--------------------|--------------------|--------------------|
--------------------|--------------------|--------------------|
--------------------|--------------------|--------------------|
--------------------|--------------------|--------------------|

H        H
--0-----------------||
-----------1--------||
--------------------||
--------------------||
--------------------||
--------------------||

Guitar 3

Q    E  E  E  E  E  E     E  E  E  E  E  E  E  E
C#||-------2--------2--------|--2--------0--------------|
G#||----------5--------5-----|-----5--------5-----5-----|
E ||-------------4--------4--|--------4--------4-----4--|
B ||-------------------------|--------------------------|
F#||-------------------------|--------------------------|
C#||--0----------------------|--------------------------|

^                   ^
  Q    E  E  E  E  E  E     W                   E  E  E  E  E  E  E  E
--3----------3--------2--|--L----------------|--------------0-----------|
--3-------3-----3-----3--|--L----------------|-----------0-----0--------|
--0----0-----------0--2--|--L----------------|--------5-----------5-----|
--0-------------------0--|--L----------------|-----7-----------------7--|
--2-------------------0--|--L----------------|--0-----------------------|
--3----------------------|-------------------|--------------------------|

E  E  E  E  E  E  E  E     E  E  E  E  E  E  E  E
--------------0-----------|--------------0-----------|
-----------0-----0--------|-----------3-----3--------|
--------5-----------5-----|--------0-----------0-----|
-----7-----------------7--|-----2-----------------2--|
--0-----------------------|--3-----------------------|
--------------------------|--------------------------|

E  E  E  E  E  E  E  E     Q    E  E  E  E  E  E     E  E  E  E  E  E  E  E
--------------0-----------|-------2--------2--------|--2--------0--------------|
-----------5-----5--------|----------5--------5-----|-----5--------5-----5-----|
--------0-----------0-----|-------------4--------4--|--------4--------4-----4--|
-----4-----------------4--|-------------------------|--------------------------|
--5-----------------------|-------------------------|--------------------------|
--------------------------|--0----------------------|--------------------------|

^                   ^
  Q    E  E  E  E  E  E     W                   E  E  E  E  E  E  E  E
--3----------3--------2--|--L----------------|--------------0-----------|
--3-------3-----3-----3--|--L----------------|-----------0-----0--------|
--0----0-----------0--2--|--L----------------|--------5-----------5-----|
--0-------------------0--|--L----------------|-----7-----------------7--|
--2-------------------0--|--L----------------|--0-----------------------|
--3----------------------|-------------------|--------------------------|

E  E  E  E  E  E  E  E     E  E  E  E  E  E  E  E
--------------0-----------|--------------0-----------|
-----------0-----0--------|-----------3-----3--------|
--------5-----------5-----|--------0-----------0-----|
-----7-----------------7--|-----2-----------------2--|
--0-----------------------|--3-----------------------|
--------------------------|--------------------------|

E  E  E  E  E  E  E  E     Q    E  E  E  E  E  E     E  E  E  E  E  E  E  E
--------------0-----------|-------2--------2--------|--2--------0--------------|
-----------5-----5--------|----------5--------5-----|-----5--------5-----5-----|
--------0-----------0-----|-------------4--------4--|--------4--------4-----4--|
-----4-----------------4--|-------------------------|--------------------------|
--5-----------------------|-------------------------|--------------------------|
--------------------------|--0----------------------|--------------------------|

^                   ^
  Q    E  E  E  E  E  E     W                   E  E  E  E  E  E  E  E
--3----------3--------2--|--L----------------|--------------0-----------|
--3-------3-----3-----3--|--L----------------|-----------0-----0--------|
--0----0-----------0--2--|--L----------------|--------5-----------5-----|
--0-------------------0--|--L----------------|-----7-----------------7--|
--2-------------------0--|--L----------------|--0-----------------------|
--3----------------------|-------------------|--------------------------|

E  E  E  E  E  E  E  E     E  E  E  E  E  E  E  E
--------------0-----------|--------------0-----------|
-----------0-----0--------|-----------3-----3--------|
--------5-----------5-----|--------0-----------0-----|
-----7-----------------7--|-----2-----------------2--|
--0-----------------------|--3-----------------------|
--------------------------|--------------------------|

PM PM PM    PM PM
  E  E  E  E  E  E  E  E     E  E  E  E  E  E  E  E
--------------0-----------|--0-----------0--------0--|
-----------5-----5--------|--1-----------1--------1--|
--------0-----------0-----|--0-----------0--------0--|
-----4-----------------4--|--2-----------2--------2--|
--5-----------------------|--3--3--3--3--3--3--3--3--|
--------------------------|--------------------------|

PM PM    PM                   PM PM PM    PM PM
  E  E  E  E  E  E  E  E     E  E  E  E  E  E  E  E
--------0-----0--0--0--0--|--0-----------0--------0--|
--------1-----1--1--1--1--|--1-----------1--------1--|
--------0-----0--0--0--0--|--2-----------2--------2--|
--------2-----2--2--2--2--|--2-----------2--------2--|
--3--3--3--3--3--3--3--3--|--0--0--0--0--0--0--0--0--|
--------------------------|--------------------------|

PM PM    PM                   PM PM PM    PM PM
  E  E  E  E  E  E  E  E     E  E  E  E  E  E  E  E
--------0-----0--0--0--0--|--0-----------0--------0--|
--------1-----1--1--1--1--|--1-----------1--------1--|
--------2-----2--2--2--2--|--0-----------0--------0--|
--------2-----2--2--2--2--|--2-----------2--------2--|
--0--0--0--0--0--0--0--0--|--3--3--3--3--3--3--3--3--|
--------------------------|--------------------------|

PM PM    PM                   PM PM PM    PM PM
  E  E  E  E  E  E  E  E     E  E  E  E  E  E  E  E
--------0-----0--0--0--0--|--2-----------2--------2--|-----|
--------1-----1--1--1--1--|--3-----------3--------3--|-----|
--------0-----0--0--0--0--|--2-----------2--------2--|-----|
--------2-----2--2--2--2--|--0--0--0--0--0--0--0--0--|-----|
--3--3--3--3--3--3--3--3--|--------------------------|-----|
--------------------------|--------------------------|-----|

Q    Q    Q    E  E     E  E  Q    Q    E  E     Q    Q    Q    E  E
--0----0----0----0--0--|--2--2--2----2----2--2--|--0----0----0----0--0--|
--1----1----1----1--1--|--3--3--3----3----3--3--|--0----0----0----0--0--|
--0----0----0----0--0--|--2--2--2----2----2--2--|--0----0----0----0--0--|
--2----2----2----2--2--|--0--0--0----0----0--0--|--2----2----2----2--2--|
--3----3----3----3--3--|--0--0--0----0----0--0--|--2----2----2----2--2--|
-----------------------|------------------------|--0----0----0----0--0--|

E  E  Q    Q    E  E     Q    Q    Q    E  E     E  E  Q    Q    E  E
--3--3--3----3----3--3--|--0----0----0----0--0--|--2--2--2----2----2--2--|
--0--0--0----0----0--0--|--1----1----1----1--1--|--3--3--3----3----3--3--|
--0--0--0----0----0--0--|--0----0----0----0--0--|--2--2--2----2----2--2--|
--0--0--0----0----0--0--|--2----2----2----2--2--|--0--0--0----0----0--0--|
--2--2--2----2----2--2--|--3----3----3----3--3--|--0--0--0----0----0--0--|
--3--3--3----3----3--3--|-----------------------|------------------------|

Q    Q    Q    E  E     E  E  E  E  E  E  E  E     Q    Q    Q    E  E
--0----0----0----0--0--|--3--3--3--3--3--3--3--3--|--0----0----0----0--0--|
--0----0----0----0--0--|--0--0--0--0--0--0--0--0--|--1----1----1----1--1--|
--0----0----0----0--0--|--0--0--0--0--0--0--0--0--|--0----0----0----0--0--|
--2----2----2----2--2--|--0--0--0--0--0--0--0--0--|--2----2----2----2--2--|
--2----2----2----2--2--|--2--2--2--2--2--2--2--2--|--3----3----3----3--3--|
--0----0----0----0--0--|--3--3--3--3--3--3--3--3--|-----------------------|

E  E  Q    Q    E  E     Q    Q    Q    E  E     E  E  Q    Q    E  E
--2--2--2----2----2--2--|--0----0----0----0--0--|--3--3--3----3----3--3--|
--3--3--3----3----3--3--|--0----0----0----0--0--|--0--0--0----0----0--0--|
--2--2--2----2----2--2--|--0----0----0----0--0--|--0--0--0----0----0--0--|
--0--0--0----0----0--0--|--2----2----2----2--2--|--0--0--0----0----0--0--|
--0--0--0----0----0--0--|--2----2----2----2--2--|--2--2--2----2----2--2--|
------------------------|--0----0----0----0--0--|--3--3--3----3----3--3--|

E  E  E  E  E  E  E  E     E  E  E  E  E  E  E  E     H        H
--2--2--2--2--2--2--2--2--|--2-----------------------|-----------3--------|
--3--3--3--3--3--3--3--3--|--3-----------------------|--------------------|
--2--2--2--2--2--2--2--2--|--2-----------------------|--------------------|
--0--0--0--0--0--0--0--0--|--0-----------------------|--------------------|
--0--0--0--0--0--0--0--0--|--0-----------------------|--------------------|
--------------------------|--------------------------|--------------------|

H        H           Q    E  E  E  E  E  E     E  E  E  E  E  E  E  E
--2-----------------|-------2--------2--------|--2--------0--------------|
-----------3--------|----------5--------5-----|-----5--------5-----5-----|
--------------------|-------------4--------4--|--------4--------4-----4--|
--------------------|-------------------------|--------------------------|
--------------------|-------------------------|--------------------------|
--------------------|--0----------------------|--------------------------|

^                   ^
  Q    E  E  E  E  E  E     W                   E  E  E  E  E  E  E  E
--3----------3--------2--|--L----------------|--------------0-----------|
--3-------3-----3-----3--|--L----------------|-----------0-----0--------|
--0----0-----------0--2--|--L----------------|--------5-----------5-----|
--0-------------------0--|--L----------------|-----7-----------------7--|
--2-------------------0--|--L----------------|--0-----------------------|
--3----------------------|-------------------|--------------------------|

E  E  E  E  E  E  E  E     E  E  E  E  E  E  E  E
--------------0-----------|--------------0-----------|
-----------0-----0--------|-----------3-----3--------|
--------5-----------5-----|--------0-----------0-----|
-----7-----------------7--|-----2-----------------2--|
--0-----------------------|--3-----------------------|
--------------------------|--------------------------|

E  E  E  E  E  E  E  E     Q    E  E  E  E  E  E     E  E  E  E  E  E  E  E
--------------0-----------|-------2--------2--------|--2--------0--------------|
-----------5-----5--------|----------5--------5-----|-----5--------5-----5-----|
--------0-----------0-----|-------------4--------4--|--------4--------4-----4--|
-----4-----------------4--|-------------------------|--------------------------|
--5-----------------------|-------------------------|--------------------------|
--------------------------|--0----------------------|--------------------------|

^                   ^
  Q    E  E  E  E  E  E     W                   E  E  E  E  E  E  E  E
--3----------3--------2--|--L----------------|--------------0-----------|
--3-------3-----3-----3--|--L----------------|-----------0-----0--------|
--0----0-----------0--2--|--L----------------|--------5-----------5-----|
--0-------------------0--|--L----------------|-----7-----------------7--|
--2-------------------0--|--L----------------|--0-----------------------|
--3----------------------|-------------------|--------------------------|

E  E  E  E  E  E  E  E     E  E  E  E  E  E  E  E
--------------0-----------|--------------0-----------|
-----------0-----0--------|-----------3-----3--------|
--------5-----------5-----|--------0-----------0-----|
-----7-----------------7--|-----2-----------------2--|
--0-----------------------|--3-----------------------|
--------------------------|--------------------------|

PM PM PM    PM PM
  E  E  E  E  E  E  E  E     E  E  E  E  E  E  E  E
--------------0-----------|--0-----------0--------0--|
-----------5-----5--------|--1-----------1--------1--|
--------0-----------0-----|--0-----------0--------0--|
-----4-----------------4--|--2-----------2--------2--|
--5-----------------------|--3--3--3--3--3--3--3--3--|
--------------------------|--------------------------|

PM PM    PM                   PM PM PM    PM PM
  E  E  E  E  E  E  E  E     E  E  E  E  E  E  E  E
--------0-----0--0--0--0--|--0-----------0--------0--|
--------1-----1--1--1--1--|--1-----------1--------1--|
--------0-----0--0--0--0--|--2-----------2--------2--|
--------2-----2--2--2--2--|--2-----------2--------2--|
--3--3--3--3--3--3--3--3--|--0--0--0--0--0--0--0--0--|
--------------------------|--------------------------|

PM PM    PM                   PM PM PM    PM PM
  E  E  E  E  E  E  E  E     E  E  E  E  E  E  E  E
--------0-----0--0--0--0--|--0-----------0--------0--|
--------1-----1--1--1--1--|--1-----------1--------1--|
--------2-----2--2--2--2--|--0
Tablature player for this song:
 
 
All That Remains - What If I Was Nothing Tab :: indexed at Ultimate Guitar.
What If I Was Nothing tabs @ 911Tabs
People who played All That Remains - What If I Was Nothing Tab also played these songs by All That Remains:
Focus Shall Not Fail Tab, Regret Not Tab, Whispers I Hear You Tab, Air That I Breathe Chords, This Calling Tab, Six Tab

About the artist behind What If I Was Nothing Tab:

All That Remains is a Metalcore band from Springfield, Massachusetts that formed in 1998, they have released three studio albums and have finished recording their next album Overcome.

Indexed at Wikipedia.

Show us your talent, perform What If I Was Nothing Tab!

Here you can post a video or audio performance. Tell me more ...
Where can we find your performance? Tell me more ...
Your comment:
Please, log in to post your performance.