Artists by letter: A B C D E F G H I J K L M N O P Q R S T U V W X Y Z 0-9
 
Little Things Tab
       
      Hi there! This song is really sweet and 
fun to play.  I did this really simple so even 
beginner pickers (like myself) can play it! It 
plays right along with the track.  Just listen 
to the song while playing to get the timing down.

(You just pick each pattern quickly back to back 
and then pause for a beat and then repeat. Once 
you get the timing you'll be set!)



Standard Tuning-EADGBe
No Capo

Intro-

C                                 Fadd9  
e|-------------------------------------------------------------|
B|------3-----3-------3-----3-----------3-----3------3-----3---|
G|------0-----0-------0-----0-----------0-----0------0-----0---|
D|----0-----0-------0-----0-----------2-----2-------2----2-----|
A|-----------------------------0h2--3-----3-------3----3-------|
E|--3-----3-------3-----3--------------------------------------|

Em7             G/F#          F        G        C     
     ----------------------------------------------------------------|
     --------3-----3-------3-----3--------1--------3-------3-----3---|
     --------0-----0-------2-----2--------0------2-2-------0-----0---| x2
     ------2-----2-------0-----0--------2------0---------0-----0-----|
     ---------------------------------3------------------------------|
     ----0-----0-------2-----2-------------------------3-----3-------|



Verses 1 & 2-

C                                 Fadd9  
e|-------------------------------------------------------------|
B|------3-----3-------3-----3-----------3-----3------3-----3---|
G|------0-----0-------0-----0-----------0-----0------0-----0---|
D|----0-----0-------0-----0-----------2-----2-------2----2-----|
A|-----------------------------0h2--3-----3-------3----3-------|
E|--3-----3-------3-----3--------------------------------------|

Em7             G/F#          F        G        C     
     ----------------------------------------------------------------|
     --------3-----3-------3-----3--------1--------3-------3-----3---|
     --------0-----0-------2-----2--------0------2-2-------0-----0---| x2
     ------2-----2-------0-----0--------2------0---------0-----0-----|
     ---------------------------------3------------------------------|
     ----0-----0-------2-----2-------------------------3-----3-------|

Verse 1
     C                                           
Your hand fits in mine like it's made just for me
    Fadd9 
But bear this in mind it was meant to be
        Em7                          G/F#
And I'm joining up the dots with the freckles on your cheeks
       F         G        C
And it all makes sense to me

Verse 2
  C                                                 
I know you've never loved the crinkles by your eyes 
         Fadd9       
When you smile you've never loved your stomach or your thighs 
    Em7                         G/F#
The dimples in your back at the bottom of your spine 
         F         G      C
But I'll love them endlessly

Chorus-

Dm7              F            Am             G       
e|--------------------------------------------------------------|
B|-----1-----1-------1-----1--------0-----0---------3-----3-----|
G|-----0-----0-------0-----0--------0-----0-------2-2---2-2-----|
D|---2-----2-------2-----2--------2-----2-------0-----0---------| x2
A|-0-----0-------3-----3----------------------------------------|
E|------------------------------0-----0-------------------------|

Dm7                       F            Am        G
 I won't let these little things slip, out of my mouth
         Dm7      F            Am            G
But if I do, it's you, Oh it's you, They add up to

F               F        C              C
e|-------------------0-------------------------------|
B|-------1-----1-----1-----------3-----3-----3-------|
G|-------0-----0-----0-----------0-----0-----0-------|
D|-----2-----2-------2---------0-----0-------0-------|
A|---3-----3---------3-----------------------2-------|
E|---------------------------3-----3---------3-------|

F                  F -once          C     G-once
I'm in love with you, And all these little things



Verses 3 & 4-

C                                Fadd9  
e|----------------------------------------------------------------|
B|------3-----3-------3-----3--------------3-----3------3-----3---|
G|------0-----0-------0-----0--------------0-----0------0-----0---|
D|----0-----0-------0-----0--------------2-----2------2-----2-----|
A|-----------------------------0h2-----3-----3-------3----3-------|
E|--3-----3-------3-----3-----------------------------------------|

Em7            G/F#           F        G        C      
     ----------------------------------------------------------------|
     --------3-----3-------3-----3--------1--------3-------3-----3---|
     --------0-----0-------2-----2--------0------2-2-------0-----0---| x2
     ------2-----2-------0-----0--------2------0---------0-----0-----|
     ---------------------------------3------------------------------|
     ----0-----0-------2-----2-------------------------3-----3-------|

Verse 3
C                                        
You can't go to bed, Without a cup of tea,
    Fadd9 
And maybe that's the reason that you talk, in your sleep 
    Em7                             G/F#
And all those conversations are the secrets that I keep 
          F        G        C
Though it makes no sense to me

Verse 4
  C  
I know you've never loved the sound of your voice 
   Fadd9   
on tape you never want to know how much you weigh 
Em7                         G/F#
You still have to squeeze into your jeans 
     F         G       C
But, you're perfect to me

Chorus-

Dm7              F            Am             G       
e|--------------------------------------------------------------|
B|-----1-----1-------1-----1--------0-----0---------3-----3-----|
G|-----0-----0-------0-----0--------0-----0-------2-2---2-2-----|
D|---2-----2-------2-----2--------2-----2-------0-----0---------| x2
A|-0-----0-------3-----3----------------------------------------|
E|------------------------------0-----0-------------------------|

Dm7                       F            Am        G
 I won't let these little things slip, out of my mouth
         Dm7      F            Am            G
But if I do, it's you, Oh it's you, They add up to

F               F       
e|-----------------------------------|
B|-------1-----1-------1-----1-------|
G|-------0-----0-------0-----0-------|
D|-----2-----2-------2-----2---------|
A|---3-----3-------3-----3-----------|
E|-----------------------------------|

F                  F                      Dm7
I'm in love with you, And all these little things



Bridge-

Dm7              F             C              G/F       
e|--------------------------------------------------------------|
B|-----1-----1-------1-----1--------3-----3---------3-----3-----|
G|-----0-----0-------0-----0--------0-----0---------2-----2-----|
D|---2-----2-------2-----2--------0-----0---------0-----0-------| x4
A|-0-----0-------3-----3----------------------------------------|
E|------------------------------3-----3---------2-----2---------|

Bridge 
Dm7           F                  C                 G/F#
 You'll never love yourself half as much as I love you 
Dm7           F                    C                      G/F#   
You'll never treat yourself right, darlin' But I want you to,
Dm7          F         C        G/F#  Dm7          F
If I let you know, I'm here for you,  Maybe you'll love yourself, 
     C      G/F#
Like I love you Oh



*Single strums
Am7*                            C*           Em*       D*
 And I've just let these little things slip, out of my mouth
           Am7*         C*        Em*           D-soft strummimg
Cause it's you, Oh it's you, it's you, They add up to 
           F                                         Am7-back to picking
And I'm in love with you, And all these little things

Chorus-

Dm7              F            Am             G       
e|--------------------------------------------------------------|
B|-----1-----1-------1-----1--------0-----0---------3-----3-----|
G|-----0-----0-------0-----0--------0-----0-------2-2---2-2-----|
D|---2-----2-------2-----2--------2-----2-------0-----0---------| x2
A|-0-----0-------3-----3----------------------------------------|
E|------------------------------0-----0-------------------------|

Dm7                       F            Am        G
 I won't let these little things slip, out of my mouth
            Dm7        F         Am            G
But if it's true, it's you, it's you, they add up to

F               F        
e|-------------------0-------|
B|-------1-----1-----1-------|
G|-------0-----0-----0-------|
D|-----2-----2-------2-------|
A|---3-----3---------3-------|
E|---------------------------|

F                                        
I'm in love with you, And all your little things



Have fun and RATE:)
cristy♥twilight
Tablature player for this song:
 
 
One Direction - Little Things Tab :: indexed at Ultimate Guitar.
Little Things tabs @ 911Tabs

Quick tip, so you can enjoy Little Things Tab even more:

If you spend just 10 seconds to register, you will be able to comment on all the chords and tabs and rate them. You will as well be able to comment on videos of your fellow guitarists and give them ratings from 1 to 5 ... And - of course - you can share your own videos with them and see what they think of you. :)
Click here to join us!

Show us your talent, perform Little Things Tab!

Here you can post a video or audio performance. Tell me more ...
Where can we find your performance? Tell me more ...
Your comment:
Please, log in to post your performance.