Artists by letter: A B C D E F G H I J K L M N O P Q R S T U V W X Y Z 0-9
 
I Am Electric Tab
Song: I Am Electric
Artist: Heaven's Basement
Tuning: Drop C#
Tabbed By: GuitarHawk99
Description:

This is the tab for the song I Am Electric By the band Heaven's Basement
which i believe is from their upcoming album "Filthy Empire". it took me
a while to figure it out, but by watching a youtube cover i could figure out
the tuning, i tabbed this because there were no other tabs, it should
be all there and it is about 100% complete. Enjoy!

Intro
Guitar 1
|-----------------------------------|
|-----------------------------------|
|-----------------------------------|
|-----8---8-----7---7-----7-----7---| x2
|-----------------------------------|
|-4-4---4---4-4---4---4-4---4-4-----|

Verse 
Guitar 1
|-----------------------------------|
|-----------------------------------|
|-----------------------------------|
|-----8---8-----7---7-----7-----7---| x4
|-----------------------------------|
|-4-4---4---4-4---4---4-4---4-4-----|

Guitar 1
|-----------------------------------|
|-----------------------------------|
|-----------------------------------|
|-----8---8-----7---7-----7-----7---| x4
|-----------------------------------|
|-4-4---4---4-4---4---4-4---4-4-----|
|
Guitar 2 (over dubbed)
|-----------------|     |------------|
|-----------------|     |------------|
|-----------------|     |------------|
|-4-4-4-4-4-4-4-4-| x8  |-4-4-4-4-4-|
|-4-4-4-4-4-4-4-4-|     |-4-4-4-4-4-|
|-4-4-4-4-4-4-4-4-|     |-4-4-4-4-4-|

Pre chorus
Guitar 1 (Tremolo picking)
|---------------------------------------------------------|
|---------------------------------------------------------|
|---------------------------------------------------------|
|---------------------------------------------------------|
|---------------------------------------------------------|
|-4-4-4-4-6-6-6-6-7-7-7-7-4-4-4-4-12-12-12-12-7-7-7-7-11~-|

Chorus
|---------------------------------------------------------------------|
|-3-3-3-3-3-3-3-3-----------------------------------------------------|
|-2-2-2-2-2-2-2-2-----------------------------------6-6-6-6-6-6-6-6-6-|
|-0-0-0-0-0-0-0-0--4-4-4-4-4-4-4-42-2-2-2-2-2-2-2--6-6-6-6-6-6-6-6-6-| x2
|-0-0-0-0-0-0-0-0--4-4-4-4-4-4-4-42-2-2-2-2-2-2-2--4-4-4-4-4-4-4-4-4-|
|-0-0-0-0-0-0-0-0--4-4-4-4-4-4-4-42-2-2-2-2-2-2-2--------------------|

|------------------------------------------------------------------|
|-3-3-3-3-3-3-3-3--------------------------------------------------|
|-2-2-2-2-2-2-2-2--------------------------------------------------|
|-0-0-0-0-0-0-0-0--2-2-2-2-2-2-2-2/4-4-4-4-4-4-4-42-2-2-2-2-2-2-2-|
|-0-0-0-0-0-0-0-0--2-2-2-2-2-2-2-2/4-4-4-4-4-4-4-42-2-2-2-2-2-2-2-|
|-0-0-0-0-0-0-0-0--2-2-2-2-2-2-2-2/4-4-4-4-4-4-4-42-2-2-2-2-2-2-2-|

|-------------|
|-3--3--------|
|-2--2--------|
|-0--0--2~----|
|-0--0--2~----|
|-0--0--2~----|

Interlude
Guitar 1
|-----------------------------------|
|-----------------------------------|
|-----------------------------------|
|-----8---8-----7---7-----7-----7---| x2
|-----------------------------------|
|-4-4---4---4-4---4---4-4---4-4-----|
|
Guitar 2 (over dubbed)
|-----------------|     |------------|
|-----------------|     |------------|
|-----------------|     |------------|
|-4-4-4-4-4-4-4-4-| x4  |-4-4-4-4-4-|
|-4-4-4-4-4-4-4-4-|     |-4-4-4-4-4-|
|-4-4-4-4-4-4-4-4-|     |-4-4-4-4-4-|

Verse
Guitar 1
|-----------------------------------|
|-----------------------------------|
|-----------------------------------|
|-----8---8-----7---7-----7-----7---| x4
|-----------------------------------|
|-4-4---4---4-4---4---4-4---4-4-----|

Guitar 1
|-----------------------------------|
|-----------------------------------|
|-----------------------------------|
|-----8---8-----7---7-----7-----7---| x4
|-----------------------------------|
|-4-4---4---4-4---4---4-4---4-4-----|
|
Guitar 2 (over dubbed)
|-----------------|     |------------|
|-----------------|     |------------|
|-----------------|     |------------|
|-4-4-4-4-4-4-4-4-| x8  |-4-4-4-4-4-|
|-4-4-4-4-4-4-4-4-|     |-4-4-4-4-4-|
|-4-4-4-4-4-4-4-4-|     |-4-4-4-4-4-|

Pre chorus
Guitar 1 (Tremolo picking)
|---------------------------------------------------------|
|---------------------------------------------------------|
|---------------------------------------------------------|
|---------------------------------------------------------|
|---------------------------------------------------------|
|-4-4-4-4-6-6-6-6-7-7-7-7-4-4-4-4-12-12-12-12-7-7-7-7-11~-|

Chorus
|---------------------------------------------------------------------|
|-3-3-3-3-3-3-3-3-----------------------------------------------------|
|-2-2-2-2-2-2-2-2-----------------------------------6-6-6-6-6-6-6-6-6-|
|-0-0-0-0-0-0-0-0--4-4-4-4-4-4-4-42-2-2-2-2-2-2-2--6-6-6-6-6-6-6-6-6-| x2
|-0-0-0-0-0-0-0-0--4-4-4-4-4-4-4-42-2-2-2-2-2-2-2--4-4-4-4-4-4-4-4-4-|
|-0-0-0-0-0-0-0-0--4-4-4-4-4-4-4-42-2-2-2-2-2-2-2--------------------|

|------------------------------------------------------------------|
|-3-3-3-3-3-3-3-3--------------------------------------------------|
|-2-2-2-2-2-2-2-2--------------------------------------------------|
|-0-0-0-0-0-0-0-0--2-2-2-2-2-2-2-2/4-4-4-4-4-4-4-42-2-2-2-2-2-2-2-|
|-0-0-0-0-0-0-0-0--2-2-2-2-2-2-2-2/4-4-4-4-4-4-4-42-2-2-2-2-2-2-2-|
|-0-0-0-0-0-0-0-0--2-2-2-2-2-2-2-2/4-4-4-4-4-4-4-42-2-2-2-2-2-2-2-|

|-------------|
|-3--3--------|
|-2--2--------|
|-0--0--2~----|
|-0--0--2~----|
|-0--0--2~----|

Bridge
|------------------------|
|------------------------|
|------------------------|
|------------------------| x4
|------------------------|
|-4--2-4--2-4--2-4-4-6-7-|

|---------------------------------------------------|
|---------------------------------------------------|
|-11----------------------11----------------------|
|-11-2-4--2-4--2-4-4-6-7--11-2-4--2-4--7-7-7--6-6-| x2
|-9--2-4--2-4--2-4-4-6-7--9--2-4--2-4--5-5-5--4-4-|
|-----2-4--2-4--2-4-4-6-7------2-4--2-4-------------|

Guitar Solo
Guitar 2 (under solo)
|---------------------------|    |---------------------------|
|-3--3--3-3-----------------|    |---------------------------|
|-2--2--2-2-----------------|    |---------------------------|
|-0--0--0-0-2-4--4-4--4-4-4-| x3 |-2-2-2-2-2-2-2-2-2-2-2-2-2-|
|-0--0--0-0-2-4--4-4--4-4-4-|    |-2-2-2-2-2-2-2-2-2-2-2-2-2-|
|-0--0--0-0-2-4--4-4--4-4-4-|    |-2-2-2-2-2-2-2-2-2-2-2-2-2-|

Guitar 1 w/ octave pedal set for one octave above
|--------------------------------12b14--12-14-12-14-12-14--/19b21-17-19-19b-|
|-----------------------------------------------------------------------------|
|-----------------------------------------------------------------------------|
|-9b11~~~~r-p7/97/97-6------------------------------------------------------|
|------------------------7-7/9~~----------------------------------------------|
|-----------------------------------------------------------------------------|

Guitar 1
|-----------------------------------|
|-----------------------------------|
|-----------------------------------|
|-----8---8-----7---7-----7-----7---| x3
|-----------------------------------|
|-4-4---4---4-4---4---4-4---4-4-----|
|------------------------|
|------------------------|
|------------------------|
|-----8---8-----7--------|
|------------------------|
|-4-4---4---4-4---/15---|

Chorus
|---------------------------------------------------------------------|
|-3-3-3-3-3-3-3-3-----------------------------------------------------|
|-2-2-2-2-2-2-2-2-----------------------------------6-6-6-6-6-6-6-6-6-|
|-0-0-0-0-0-0-0-0--4-4-4-4-4-4-4-42-2-2-2-2-2-2-2--6-6-6-6-6-6-6-6-6-| x2
|-0-0-0-0-0-0-0-0--4-4-4-4-4-4-4-42-2-2-2-2-2-2-2--4-4-4-4-4-4-4-4-4-|
|-0-0-0-0-0-0-0-0--4-4-4-4-4-4-4-42-2-2-2-2-2-2-2--------------------|

|------------------------------------------------------------------|
|-3-3-3-3-3-3-3-3--------------------------------------------------|
|-2-2-2-2-2-2-2-2--------------------------------------------------|
|-0-0-0-0-0-0-0-0--2-2-2-2-2-2-2-2/4-4-4-4-4-4-4-42-2-2-2-2-2-2-2-|
|-0-0-0-0-0-0-0-0--2-2-2-2-2-2-2-2/4-4-4-4-4-4-4-42-2-2-2-2-2-2-2-|
|-0-0-0-0-0-0-0-0--2-2-2-2-2-2-2-2/4-4-4-4-4-4-4-42-2-2-2-2-2-2-2-|

|-------------|
|-3--3--------|
|-2--2--------|
|-0--0--2~----|
|-0--0--2~----|
|-0--0--2~----|

Outro
Guitar 1
|-----------------------------------|
|-----------------------------------|
|-----------------------------------|
|-----8---8-----7---7-----7-----7---| x3
|-----------------------------------|
|-4-4---4---4-4---4---4-4---4-4-----|
|
Guitar 2 (over dubbed)
|-----------------|
|-----------------|
|-----------------|
|-4-4-4-4-4-4-4-4-| x6
|-4-4-4-4-4-4-4-4-|
|-4-4-4-4-4-4-4-4-|

Guitar 1
|-----------------------------------|
|-----------------------------------|
|-----------------------------------|
|-----8---8-----7--4---------------|
|------------------4---------------|
|-4-4---4---4-4----4---------------|
|
Guitar 2 (over dubbed)
|----------------------|
|----------------------|
|----------------------|
|-4-4-4-4-4-4-4-4--4-|
|-4-4-4-4-4-4-4-4--4-|
|-4-4-4-4-4-4-4-4--4-|
Tablature player for this song:
 
 
Heavens Basement - I Am Electric Tab :: indexed at Ultimate Guitar.
I Am Electric tabs @ 911Tabs

Quick tip, so you can enjoy I Am Electric Tab even more:

After the registration (which takes just 10 seconds, remember?) you will be able to use your profile - your very own piece of YourChords.com.

Show us your talent, perform I Am Electric Tab!

Here you can post a video or audio performance. Tell me more ...
Where can we find your performance? Tell me more ...
Your comment:
Please, log in to post your performance.