Artists by letter: A B C D E F G H I J K L M N O P Q R S T U V W X Y Z 0-9
 
The High Road Tab
Tabbed by: Joshua Garcia (halofreak731@aol.com)

Tabs for the song: The High Road by Three Days Grace
Please rate and let me know if you have any corrections. Thank you.

Tuning: Drop B (B F# B E G# C#)

Intro
Guitar 1:
C#||-------------------|-------------------|-------------------|--------------------|
G#||-------------------|-------------------|-------------------|--------------------|
E ||--9~----9-9-9--5~--|-------------------|--9~----9-9-9--5~--|--------------------|
B ||--9~----9-9-9--5~--|--5~----5-5-5/-9~--|--9~----9-9-9--5~--|--5~----5-5-5/-12~--|
F#||--7~----7-7-7--3~--|--5~----5-5-5/-9~--|--7~----7-7-7--3~--|--5~----5-5-5/-12~--|
B ||-------------------|--5~----5-5-5/-9~--|-------------------|--5~----5-5-5/-12~--|

C#||-------------------|-------------------|--------------------------|-----------------|
G#||-------------------|-------------------|--------------------------|-----------------|
E ||--5~----5-5-5------|-------------------|--------------------------|--5--5--5--5--5--|
B ||--5~----5-5-5--2~--|--5~----5-5-5--0~--|--7--7--7--7--7--7--7--7--|--5--5--5--5--5--|
F#||--3~----3-3-3--2~--|--5~----5-5-5--0~--|--7--7--7--7--7--7--7--7--|--3--3--3--3--3--|
B ||---------------2~--|--5~----5-5-5--0~--|--7--7--7--7--7--7--7--7--|-----------------|



Chorus
Guitar 1:
C#||------------------------------|-----------------------|-------------------------|
G#||------------------------------|-----------------------|-------------------------|
E ||----------------5---5-5---5~--|-----------------------|--5--5~------------------|
B ||--5--7--2--2~---5---5-5---5~--|--5--5~---0--0-0---0~--|--5--5~---2--2~---0--0~--|
F#||--5--7--2--2~---3---3-3---3~--|--5--5~---0--0-0---0~--|--3--3~---2--2~---0--0~--|
B ||--5--7--2--2~-----------------|--5--5~---0--0-0---0~--|----------2--2~---0--0~--|

C#||------------------------------|-----------------------|------------------------------|
G#||------------------------------|-----------------------|------------------------------|
E ||----------------5---5-5---5~--|-----------------------|--5--5~-----------------------|
B ||--5--7--2--2~---5---5-5---5~--|--5--5~---0--0-0---0~--|--5--5~---2--2~---0--0~---0~--|
F#||--5--7--2--2~---3---3-3---3~--|--5--5~---0--0-0---0~--|--3--3~---2--2~---0--0~---0~--|
B ||--5--7--2--2~-----------------|--5--5~---0--0-0---0~--|----------2--2~---0--0~---0~--|

Guitar 2:
C#||--17--19191919--------------------15--15151515--14--14141414--15151515--|
G#||----------------17--151515151515----------------------------------------|
E ||------------------------------------------------------------------------|
B ||------------------------------------------------------------------------|
F#||------------------------------------------------------------------------|
B ||------------------------------------------------------------------------|

C#||--------------------19--19191919-15--15151515-14~--|
G#||--17--171717171717---------------------------------|
E ||---------------------------------------------------|
B ||---------------------------------------------------| x2
F#||---------------------------------------------------|
B ||---------------------------------------------------|



Verse
Guitar 1:
C#||--------------------------------|-------------------|-------------------|
G#||--------------------------------|-------------------|-------------------|
E ||--------------------------------|-------------------|-------------------|
B ||--------------------------------|-------------------|-------------------|
F#||--7-7-7-7-7-7--3-3-3-3-3-3-3-3--|-------------------|--7--7~-----3--3~--|
B ||--------------------------------|--5--5~-----9--9~--|-------------------|

C#||------------------------------------|
G#||-----------------------12-10--------|
E ||-----------------------------12-11--|
B ||------------------------------------|
F#||------------------------------------|
B ||--5--5~--/--12--12~-----------------|

Guitar 1:
C#||------------------|------------------|--------------------------|-----------------|
G#||------------------|------------------|--------------------------|-----------------|
E ||--5--5~-----------|------------------|--------------------------|--5--5--5--5--5--|
B ||--5--5~----2--2~--|--5--5~----0--0~--|--7--7--7--7--7--7--7--7--|--5--5--5--5--5--|
F#||--3--3~----2--2~--|--5--5~----0--0~--|--7--7--7--7--7--7--7--7--|--3--3--3--3--3--|
B ||-----------2--2~--|--5--5~----0--0~--|--7--7--7--7--7--7--7--7--|-----------------|

Guitar 2:
C#||-----------15~--|--15~-----14~--|---------------------------|--15-15-15-15-15--|
G#||--17~-----------|---------------|--17-17-17-17-17-17-17-17--|------------------|
E ||----------------|---------------|---------------------------|------------------|
B ||----------------|---------------|---------------------------|------------------|
F#||----------------|---------------|---------------------------|------------------|
B ||----------------|---------------|---------------------------|------------------|



Chorus
Guitar 1:
C#||------------------------------|-----------------------|-------------------------|
G#||------------------------------|-----------------------|-------------------------|
E ||----------------5---5-5---5~--|-----------------------|--5--5~------------------|
B ||--5--7--2--2~---5---5-5---5~--|--5--5~---0--0-0---0~--|--5--5~---2--2~---0--0~--|
F#||--5--7--2--2~---3---3-3---3~--|--5--5~---0--0-0---0~--|--3--3~---2--2~---0--0~--|
B ||--5--7--2--2~-----------------|--5--5~---0--0-0---0~--|----------2--2~---0--0~--|

C#||------------------------------|-----------------------|------------------------------|
G#||------------------------------|-----------------------|------------------------------|
E ||----------------5---5-5---5~--|-----------------------|--5--5~-----------------------|
B ||--5--7--2--2~---5---5-5---5~--|--5--5~---0--0-0---0~--|--5--5~---2--2~---0--0~---0~--|
F#||--5--7--2--2~---3---3-3---3~--|--5--5~---0--0-0---0~--|--3--3~---2--2~---0--0~---0~--|
B ||--5--7--2--2~-----------------|--5--5~---0--0-0---0~--|----------2--2~---0--0~---0~--|

Guitar 2:
C#||--17--19191919--------------------15--15151515--14--14141414--15151515--|
G#||----------------17--151515151515----------------------------------------|
E ||------------------------------------------------------------------------|
B ||------------------------------------------------------------------------|
F#||------------------------------------------------------------------------|
B ||------------------------------------------------------------------------|

C#||--------------------19--19191919-15--15151515-14~--|
G#||--17--171717171717---------------------------------|
E ||---------------------------------------------------|
B ||---------------------------------------------------| x2
F#||---------------------------------------------------|
B ||---------------------------------------------------|



Bridge
Guitar 1/2:
C#||----------15--15------------------|
G#||------15--15--15------------------|
E ||--16--16----------16--16--16--16--|
B ||----------------------------------| x12
F#||----------------------------------|
B ||----------------------------------|

C#||----------15--15------------------|------------------15--15--15--15--|
G#||------15--15--15------------------|--------------15--15--15--15--15--|
E ||--16--16----------16--16--16--16--|--16--16--16--16------------------|
B ||----------------------------------|----------------------------------| x2
F#||----------------------------------|----------------------------------|
B ||----------------------------------|----------------------------------|

C#||----------15--15------------------|
G#||------15--15--15------------------|
E ||--16--16----------16--16--16--16--|
B ||----------------------------------| x3
F#||----------------------------------|
B ||----------------------------------|

C#||------------------15--15--15--15--|
G#||--------------15--15--15--15--15--|
E ||--16--16--16--16------------------|
B ||----------------------------------|
F#||----------------------------------|
B ||----------------------------------|



Interlude
Guitar 1:
C#||-------------------|-------------------|
G#||-------------------|-------------------|
E ||--9~----9-9-9--5~--|-------------------|
B ||--9~----9-9-9--5~--|--5~----5-5-5/-9~--|
F#||--7~----7-7-7--3~--|--5~----5-5-5/-9~--|
B ||-------------------|--5~----5-5-5/-9~--|



Chorus / Outro
Guitar 1:
C#||------------------------|-----------------------|-------------------------|
G#||------------------------|-----------------------|-------------------------|
E ||----------5---5-5---5~--|-----------------------|--5--5~------------------|
B ||--2--2~---5---5-5---5~--|--5--5~---0--0-0---0~--|--5--5~---2--2~---0--0~--|
F#||--2--2~---3---3-3---3~--|--5--5~---0--0-0---0~--|--3--3~---2--2~---0--0~--|
B ||--2--2~-----------------|--5--5~---0--0-0---0~--|----------2--2~---0--0~--|

C#||------------------------------|-----------------------|
G#||------------------------------|-----------------------|
E ||----------------5---5-5---5~--|--4--4~---7--7-7---7~--|
B ||--5--7--2--2~---5---5-5---5~--|--4--4~---7--7-7---7~--|
F#||--5--7--2--2~---3---3-3---3~--|--2--2~---5--5-5---5~--|
B ||--5--7--2--2~-----------------|-----------------------|

C#||-----------------------------------------------|-------------------------------------|
G#||-----------------------------------------------|-------------------------------------|
E ||--5--5--5~---9--9--9~---7--7---7~--7-7~--7--7--|--5--5--5~---9--9--9~---7--7--7------|
B ||--5--5--5~---9--9--9~---7--7---7~--7-7~--7--7--|--5--5--5~---9--9--9~---7--7--7--7~--|
F#||--3--3--3~---7--7--7~---5--5---5~--5-5~--5--5--|--3--3--3~---7--7--7~---5--5--5--7~--|
B ||-----------------------------------------------|---------------------------------7~--|

Guitar 2:
C#||--17--19191919--------------------15--15151515--14--14141414--15151515--|
G#||----------------17--151515151515----------------------------------------|
E ||------------------------------------------------------------------------|
B ||------------------------------------------------------------------------|
F#||------------------------------------------------------------------------|
B ||------------------------------------------------------------------------|

C#||--------------------19--19191919-15--15151515-14~--|
G#||--17--171717171717---------------------------------|
E ||---------------------------------------------------|
B ||---------------------------------------------------| x2
F#||---------------------------------------------------|
B ||---------------------------------------------------|

C#||--------------------19--19191919-15--15151515-14~--|
G#||--17--171717171717---------------------------------|
E ||---------------------------------------------------|
B ||---------------------------------------------------|
F#||---------------------------------------------------|
B ||---------------------------------------------------|



Tablature Legend
----------------
 h   - hammer-on
 p   - pull-off
 b   - bend
 r   - release bend
 *   - pinch harmonic
 '   - natural harmonic
 x   - mute note
 .   - palm mute
 /   - slide down
    - slide up
Tablature player for this song:
 
 
Three Days Grace - The High Road Tab :: indexed at Ultimate Guitar.
The High Road tabs @ 911Tabs

About the artist behind The High Road Tab:

Three Days Grace (also known as TDG or 3DG) is a Post-grunge band based in Canada. The band was formed in Toronto, Ontario, in 1997,[5] their line-up consists of guitarist and lead vocalist Adam Gontier, drummer and back up vocalist Neil Sanderson, bassist and back up vocalist Brad Walst, and lead guitarist Barry Stock.

Indexed at Wikipedia.

Show us your talent, perform The High Road Tab!

Here you can post a video or audio performance. Tell me more ...
Where can we find your performance? Tell me more ...
Your comment:
Please, log in to post your performance.