Artists by letter: A B C D E F G H I J K L M N O P Q R S T U V W X Y Z 0-9
 
Live While Were Young Tab
There's not a whole lot to tab in this song, but the intro and bridge I felt really 
needed a tab, so I just included that with chords at the bottom. Feel free to correct 
anything you see wrong with this but please be kind.
Live While We're Young by One Direction

PM= Palm Mute

Guitar 1:
    INTRO
e--------------|------------------|
b--------------|------------------|
g--------------|------------------|     x2
d-0-2-4-5-5-4-0|------------------|
a--------------|------------------|
e--------------|------------------|
                    PM  PM  PM

VERSE 1

Liam:
   Hey girl I'm waitin' on ya     I'm waitin' on ya

e---------------------------|----------------------|
b---------------------------|----------------------|
g---------------------------|----------------------|
d---0-2-4-5-5-4-0-----------|---------4-5-5-4-0----|
a---------------------------|----------------------|
e---------------------------|----------------------|

Come on and let me sneak you out

e------------------|
b------------------|
g------------------|
d--0-2-4-5-5-4-0-2-|
a------------------|
e------------------|

Let's have a celebration,   a celebration, the music up, the windows down
e-----------------|-------------------|------------------|
b-----------------|-------------------|------------------|
g-----------------|-------------------|------------------|
d---0-2-4-5-5-4-0-|------4-5-5-4-0----|--0-2-4-5-5-4-0-2-|
a-----------------|-------------------|------------------|
e-----------------|-------------------|------------------|



PRECHORUS
  Zayn:
Yeah, we'll doin' what we do, just pretending that we're cool and we know it too

e-------------------|----------------|-----------------|
b-------------------|----------------|-----------------|
g-------------------|----------------|-----------------|(Same style as verse)
d-------------------|----------------|-----------------|
a--0-2-4-5-5-4-0----|--4-5-5-4-0-----|--0-2-4-5-5-4-0-2|
e-------------------|----------------|-----------------|



Yeah, we'll be doin' what we do, just pretending that we're cool, so tonight

e-------------------|----------------|-----------------|
b-------------------|----------------|-----------------|
g-------------------|----------------|-----------------|
d-------------------|----------------|-----------------|
a--0-2-4-5-5-4-0----|--4-5-5-4-0-----|--0-2-4-5-5-4-0-2|
e-------------------|----------------|-----------------|

CHORUS
Harry:

D           G           A        D
Let's go crazy crazy crazy til we see the sun

D               G               A           D
I know we only met, but let's pretend it's love

D            G            A    D (or Bm-A-D)
and never never never stop for anyone

G                      A
Tonight let's get some

And Live While We're Young

D G A D x3

G                      A
Tonight Let's get some
                          D
And Live While We're Young

CHORUS OPTIONAL RIFF:
e-5-2-5-2-5-2-0-----5-2------5-2-5-2-5-2-0-----5-2-----------------------|
b---------------3-5--------3---------------3-5---------------------------|
g------------------------------------------------------------------------|
d------------------------------------------------------------------------|
a------------------------------------------------------------------------|
e------------------------------------------------------------------------|

e-5-2-5-2-5-2-0-----5-2------2-2-2-2-0-----------------------------------|
b---------------3-5--------3---------------------------------------------|
g------------------------------------------------------------------------|
d------------------------------------------------------------------------|
a------------------------------------------------------------------------|
e------------------------------------------------------------------------|

VERSE 2

Zayn:
Hey girl, it's now or never, it's now or never

e---------------------------|----------------------|
b---------------------------|----------------------|
g---------------------------|----------------------|
d---0-2-4-5-5-4-0-----------|---------4-5-5-4-0----|
a---------------------------|----------------------|
e---------------------------|----------------------|

Don't over-think, just let it go

e------------------|
b------------------|
g------------------|
d--0-2-4-5-5-4-0-2-|
a------------------|
e------------------|

And if we get together, yeah, get together
Don't let the pictures leave your phone, ohhhh

e-----------------|-------------------|------------------|
b-----------------|-------------------|------------------|
g-----------------|-------------------|------------------|
d---0-2-4-5-5-4-0-|------4-5-5-4-0----|--0-2-4-5-5-4-0-2-|
a-----------------|-------------------|------------------|
e-----------------|-------------------|------------------|



PRECHORUS

Niall:
Yeah, we'll be doin' what we do, just pretending that we're cool, so tonight

e-------------------|----------------|-----------------|
b-------------------|----------------|-----------------|
g-------------------|----------------|-----------------|
d-------------------|----------------|-----------------|
a--0-2-4-5-5-4-0----|--4-5-5-4-0-----|--0-2-4-5-5-4-0-2|
e-------------------|----------------|-----------------|

CHORUS
Harry:

D           G           A        D
Let's go crazy crazy crazy til we see the sun

D               G               A           D
I know we only met, but let's pretend it's love

D            G            A    D (or Bm-A-D)
and never never never stop for anyone

G                      A
Tonight let's get some

And Live While We're Young

BRIDGE:

e------------------------------------------------------|
b------77----------------------------------------------|
g-7-7-7--77-6-6-6-99-66-4-4-4-77-44-0-0-0-44-00--------|
d------------------------------------------------------| x3 throughout bridge
a------------------------------------------------------|
e------------------------------------------------------|

Zayn:
And girl, you and I,
We're 'bout to make some memories tonight
Louis:
I wanna live while we're young
We wanna live while we're young

CHORUS
Harry:

D           G           A        D
Let's go crazy crazy crazy til we see the sun

D               G               A           D
I know we only met, but let's pretend it's love

D            G            A    D (or Bm-A-D)
and never never never stop for anyone

G                      A
Tonight let's get some

Zayn:
And Live While We're Young
-------------------------------------------------------------------------
CHORDS:

INTRO
D G D x2

VERSE 1
Liam:

D             G         D  D      G         D
Hey girl I'm waitin' on ya, I'm waitin' on ya

D           (Bm or G) G      A
Come on and let me sneak you out

D             G       D   D      G     D
Let's have a celebration,   a celebration,

D           (Bm or G) G      A
the music up, the windows down

PRECHORUS
  Zayn:

Bm   G       D             A
Yeah, we'll doin' what we do,

Bm                    G           D       A
just pretending that we're cool and we know it too

Bm  G           D             A        Bm                   G
Yeah, we'll be doin' what we do, just pretending that we're cool,

D    A
so tonight

CHORUS
Harry:

D           G           A        D
Let's go crazy crazy crazy til we see the sun

D               G               A           D
I know we only met, but let's pretend it's love

D            G            A    D (or Bm-A-D)
and never never never stop for anyone

G                      A
Tonight let's get some

And Live While We're Young

D G A D x3

G                      A
Tonight Let's get some
                          D
And Live While We're Young

Zayn:

D               G       D   D      G       D
Hey girl, it's now or never, it's now or never

D        Bm or G) G      A
Don't over-think, just let it go

D         G         D  D      G         D
And if we get together, yeah, get together

D           (Bm or G) G      A
Don't let the pictures leave your phone, ohhhh

PRECHORUS

Niall:

Bm  G           D             A        Bm                   G     D    A
Yeah, we'll be doin' what we do, just pretending that we're cool, so tonight
CHORUS
Harry:

D           G           A        D
Let's go crazy crazy crazy til we see the sun

D               G               A           D
I know we only met, but let's pretend it's love

D            G            A    D (or Bm-A-D)
and never never never stop for anyone

G                      A
Tonight let's get some

And Live While We're Young

D A Bm G

Zayn:

D         A
And girl, you and I,

Bm                         G
We're 'bout to make some memories tonight

Louis:

D                   A
I wanna live while we're young

B                  G
We wanna live while we're young

CHORUS
Harry:

D           G           A        D
Let's go crazy crazy crazy til we see the sun

D               G               A           D
I know we only met, but let's pretend it's love

D            G            A    D (or Bm-A-D)
and never never never stop for anyone

G                      A
Tonight let's get some

Zayn:
And Live While We're Young

End on D
Tablature player for this song:
 
 
One Direction - Live While Were Young Tab :: indexed at Ultimate Guitar.
Live While Were Young tabs @ 911Tabs

Quick tip, so you can enjoy Live While Were Young Tab even more:

After the registration (which takes just 10 seconds, remember?) you will be able to use your profile - your very own piece of YourChords.com.

Show us your talent, perform Live While Were Young Tab!

Here you can post a video or audio performance. Tell me more ...
Where can we find your performance? Tell me more ...
Your comment:
Please, log in to post your performance.