Artists by letter: A B C D E F G H I J K L M N O P Q R S T U V W X Y Z 0-9
 
Lepaskan Diriku Tab
                                Lepaskan diriku

J Rock - Ardie (Japanese from malang)
Lead Guitar
Emo is a take ready steady go!!! (Edited by me !!!)



E  E  E  E  E  E  E  E     E  E  E  E  E  E  E  E   
E||--------------------------|--------------------------|
B||--------------------------|--------------------------|
G||--5--5--5--5--5--5--5--5--|--5--5--5--5--5--5--5--5--|
D||--x--x--x--x--x--x--x--x--|--x--x--x--x--x--x--x--x--|
A||--3--3--3--3--3--3--3--3--|--3--3--3--3--3--3--3--3--|
E||--------------------------|--------------------------|

E  E  E  E  E  E  E  E     E  E  E  E  E  E  E  E   
--------------------------|--------------------------|
--------------------------|--------------------------|
--5--5--5--5--5--5--5--5--|--5--5--5--5--5--5--5--5--|
--5--5--5--5--5--5--5--5--|--5--5--5--5--5--5--5--5--|
--3--3--3--3--3--3--3--3--|--3--3--3--3--3--3--3--3--|
--------------------------|--------------------------|

E  E  E  E  S S E  S S E     E  E  E  E  S S E  S S E   
----------------------------|----------------------------|
----------------------------|----------------------------|
----------------------------|--5--5--5--5--5-5-5--5-5-5--|
----------------------------|----------------------------|
--3--3--3--3--3-3-3--3-3-3--|----------------------------|
----------------------------|----------------------------|

glide                
  E  E  S S E  S S E  S S E     E  E  Q     E  S S S S E   
-----------------------------|----------------------------|
--5--5--5-5-5--5-5-5---------|--5--5--x-----x--5-5-5-5----|
-----------------------------|-------------------------5--|
----------------------2-2-2--|----------------------------|
-----------------------------|----------------------------|
-----------------------------|----------------------------|

E  E  E  E  E  Q    E     E  E  E  E  S S E  Q       E  E  E  E  E  Q    E   
-------------------------|--------------------------|-------------------------|
-------------------------|--------------------------|-------------------------|
-------------------------|--------------------------|-------------------------|
--5--5--5--5--5-------5--|--L--5--5--5--5-x---------|-------------------------|
-----------------5-------|------------------5--L----|--3--3--3--3--3--2----3--|
-------------------------|---------------------L----|-------------------------|

^                                   
  H        S S   E  Q        Q    E  H        E     W                 
--------------------------|-------3--L--------L--|--L----------------|
--------------------------|-------5--L--------L--|--L----------------|
--------------------------|-------5--L--------L--|--L----------------|
--------------------------|----------------------|-------------------|
--5--------5-5-/12--5----|----------------------|-------------------|
--------------------------|----------------------|-------------------|

^                                         ^                   
  E  H.           E     W                   E  H.           E   
--3--L------------L--|--L----------------|--3--L------------L--|
--5--L------------L--|--L----------------|--1--L------------L--|
--4--L------------L--|--L----------------|--2--L------------L--|
---------------------|-------------------|---------------------|
---------------------|-------------------|---------------------|
---------------------|-------------------|---------------------|

^                     ^                   
  W                   E  H.           E     E  H.           E   
--1----------------|--4--L------------L--|--3--L------------L--|
--L----------------|--4--L------------L--|--3--L------------L--|
--L----------------|--5--L------------L--|--4--L------------L--|
-------------------|---------------------|---------------------|
-------------------|---------------------|---------------------|
-------------------|---------------------|---------------------|

^                                     ^                   
  Q    E  H        E     W                   E  H.           E   
-------3--L--------L--|--L----------------|--3--L------------L--|
-------5--L--------L--|--L----------------|--5--L------------L--|
-------5--L--------L--|--L----------------|--4--L------------L--|
----------------------|-------------------|---------------------|
----------------------|-------------------|---------------------|
----------------------|-------------------|---------------------|

^                                       
  W                   E  H.           E     W                 
--L----------------|--3--L------------L--|--1----------------|
--L----------------|--1--L------------L--|--L----------------|
--L----------------|--2--L------------L--|--L----------------|
-------------------|---------------------|-------------------|
-------------------|---------------------|-------------------|
-------------------|---------------------|-------------------|

^                     ^                                              
  E  H.           E     E  H.           E     E  E  E  E  E  E  E  E   
--4--L------------L--|--3--L---------------|--------------------------|
--4--L------------L--|--3--L---------------|--------------------------|
--5--L------------L--|--4--L---------------|--------------------------|
---------------------|---------------------|--9--x--9--x--9--9--9-----|
---------------------|---------------------|--7--x--7--x--7--7--7--7--|
---------------------|---------------------|-----------------------5--|

E  E  Q    E  E  E  E     E  E  E  E  E  E  E  E     E  E  Q    E  E  E  E   
-------------------------|--------------------------|-------------------------|
-------------------------|--------------------------|-------------------------|
-------------------------|--------------------------|-------------------------|
-------------------------|--7--x--7--x--7--7--7-----|-------------------------|
--L--7--7----7--7--7--7--|--5--x--5--x--5--5--5--5--|--L--5--5----5--5--5--5--|
--L--5--5----5--5--5--5--|-----------------------3--|--L--3--3----3--3--3--3--|

E  E  E  E  E  E  E  E     E  E  Q    E  E  E  E     E  E  E  E  E  E  E  E   
--------------------------|-------------------------|--------------------------|
--------------------------|-------------------------|--------------------------|
--------------------------|-------------------------|--------------------------|
--9--x--9--x--9--9--9-----|-------------------------|--7--x--7--x--7--7--7--x--|
--7--x--7--x--7--7--7--7--|--L--7--7----7--7--7--7--|--5--x--5--x--5--5--5--x--|
-----------------------5--|--L--5--5----5--5--5--5--|--------------------------|

E  E  E  E  E  E  E  E     E  E  Q    E  E  E  E     E  E  Q    E  E  E  E   
--------------------------|-------------------------|-------------------------|
--------------------------|-------------------------|-------------------------|
--------------------------|-------------------------|-------------------------|
--7--7--7--7--x--7--7--7--|--3--x--3----3--3--3--5--|--L--x--5----5--5--5--x--|
--5--5--5--5--x--5--5--5--|--1--x--1----1--1--1--5--|--L--x--5----5--5--5--x--|
--------------------------|--1--x--1----1--1--1--3--|--L--x--3----3--3--3--x--|

E  E  H.              Q    E  E  E  E  E  E     E  E  E  E  E  E  E  E   
---------------------|-------------------------|--------------------------|
---------------------|-------------------------|--------------------------|
---------------------|-------------------------|--------------------------|
--5--x---------------|--5----5--5--5--5--x--5--|--L--5--5--5--5--5--5--5--|
--5--x---------------|--3----3--3--3--3--x--3--|--L--3--3--3--3--3--3--3--|
--3--x---------------|-------------------------|--------------------------|

Q    E  E  E  E  E  E     E  E  E  E  E  E  E  E     E  E  E  E  E  E  E  E   
-------------------------|--------------------------|--------------------------|
-------------------------|--------------------------|--------------------------|
-------------------------|--------------------------|--------------------------|
--4----4--4--4--4--x--4--|--L--4--4--4--4--4--4--4--|--3--3--3--3--3--3--x--2--|
--2----2--2--2--2--x--2--|--L--2--2--2--2--2--2--2--|--1--1--1--1--1--1--x--0--|
-------------------------|--------------------------|--------------------------|

Q    E  E  E  E  E  E     E  E  E  E  E  E  E  E     E  E  E  E  E  E  E  E   
-------------------------|--------------------------|--------------------------|
-------------------------|--------------------------|--------------------------|
-------------------------|--------------------------|--------------------------|
--L----2--2--2--2--2--2--|--7--7--7--7--7--7--7--7--|--7--7--7--7--7--7--7--7--|
--L----0--0--0--0--0--0--|--5--5--5--5--5--5--5--5--|--5--5--5--5--5--5--5--5--|
-------------------------|--------------------------|--------------------------|

E  E  E  E  E  E  E  E     E  E  Q    E  E  E  E     E  E  E  E  E  E  E  E   
--------------------------|-------------------------|--------------------------|
--------------------------|-------------------------|--------------------------|
--------------------------|-------------------------|--------------------------|
--7--x--7--x--7--7--7-----|-------------------------|--9--x--9--x--9--9--9-----|
--5--x--5--x--5--5--5--5--|--L--5--5----5--5--5--5--|--7--x--7--x--7--7--7--7--|
-----------------------3--|--L--3--3----3--3--3--3--|-----------------------5--|

E  E  Q    E  E  E  E     E  E  E  E  E  E  E  E     E  E  Q    E  E  E  E   
-------------------------|--------------------------|-------------------------|
-------------------------|--------------------------|-------------------------|
-------------------------|--------------------------|-------------------------|
-------------------------|--7--x--7--x--7--7--7-----|-------------------------|
--L--7--7----7--7--7--7--|--5--x--5--x--5--5--5--5--|--L--5--5----5--5--5--5--|
--L--5--5----5--5--5--5--|-----------------------3--|--L--3--3----3--3--3--3--|

E  E  E  E  E  E  E  E     E  E  E  E  E  E  Q      
--------------------------|--------------------------|
--------------------------|--------------------------|
--------------------------|--------------------------|
--5--5--5--5--5--5--5--5--|--5--5--5--5--5--5--------|
--3--3--3--3--3--3--3--3--|--3--3--3--3--3--3--3/----|
--------------------------|--------------------------|

E   E   E   E  E  E   E   E     E  E  E  E  E  E  E  E   
--------------------------------|--------------------------|
--------------------------------|--------------6--6--8--8--|
--------------------------------|--7--7--9--9--------------|
--10--10----------9--9--10--10--|--------------------------|
----------10--10----------------|--------------------------|
--------------------------------|--------------------------|

TP                    TP         TP           TP                 
  W                     H          H            W                  
--8S----------------|--10S--------12S--------|--6S----------------|
--------------------|------------------------|--------------------|
--------------------|------------------------|--------------------|
--------------------|------------------------|--------------------|
--------------------|------------------------|--------------------|
--------------------|------------------------|--------------------|

TP         TP           TP                                    
   H          H            W                   W                 
--10S--------12S--------|--5----------------|--L----------------|
------------------------|-------------------|-------------------|
------------------------|-------------------|-------------------|
------------------------|-------------------|-------------------|
------------------------|-------------------|-------------------|
------------------------|-------------------|-------------------|

TP                  TP                  TP                 
  W                   W                   W                  
--4----------------|--3----------------|--8S----------------|
-------------------|-------------------|--------------------|
-------------------|-------------------|--------------------|
-------------------|-------------------|--------------------|
-------------------|-------------------|--------------------|
-------------------|-------------------|--------------------|

TP         TP           TP                    TP         TP         
   H          H            W                     H          H          
--10S--------12S--------|--6S----------------|--10S--------12S--------|
------------------------|--------------------|------------------------|
------------------------|--------------------|------------------------|
------------------------|--------------------|------------------------|
------------------------|--------------------|------------------------|
------------------------|--------------------|------------------------|

TP                                      TP                  TP                
  W                   W                   W                   W                 
--5----------------|--L----------------|--4----------------|--3----------------|
-------------------|-------------------|-------------------|-------------------|
-------------------|-------------------|-------------------|-------------------|
-------------------|-------------------|-------------------|-------------------|
-------------------|-------------------|-------------------|-------------------|
-------------------|-------------------|-------------------|-------------------|

E  E  E  E  E  E  E  E     E  E  Q    E  E  E  E     E  E  E  E  E  E  E  E   
--------------------------|-------------------------|--------------------------|
--------------------------|-------------------------|--------------------------|
--------------------------|-------------------------|--------------------------|
--9--x--9--x--9--9--9-----|-------------------------|--7--x--7--x--7--7--7-----|
--7--x--7--x--7--7--7--7--|--L--7--7----7--7--7--7--|--5--x--5--x--5--5--5--5--|
-----------------------5--|--L--5--5----5--5--5--5--|-----------------------3--|

E  E  Q    E  E  E  E     E  E  E  E  E  E  E  E     E  E  Q    E  E  E  E   
-------------------------|--------------------------|-------------------------|
-------------------------|--------------------------|-------------------------|
-------------------------|--------------------------|-------------------------|
-------------------------|--9--x--9--x--9--9--9-----|-------------------------|
--L--5--5----5--5--5--5--|--7--x--7--x--7--7--7--7--|--L--7--7----7--7--7--7--|
--L--3--3----3--3--3--3--|-----------------------5--|--L--5--5----5--5--5--5--|

E  E  E  E  E  E  E  E     E  E  E  E  E  E  E  E     E  E  Q    E  E  E  E   
--------------------------|--------------------------|-------------------------|
--------------------------|--------------------------|-------------------------|
--------------------------|--------------------------|-------------------------|
--7--x--7--x--7--7--7--x--|--7--7--7--7--x--7--7--7--|--3--x--3----3--3--3--5--|
--5--x--5--x--5--5--5--x--|--5--5--5--5--x--5--5--5--|--1--x--1----1--1--1--5--|
--------------------------|--------------------------|--1--x--1----1--1--1--3--|

E  E  Q    E  E  E  E     E  E  H.              Q    E  E  E  E  E  E   
-------------------------|---------------------|-------------------------|
-------------------------|---------------------|-------------------------|
-------------------------|---------------------|-------------------------|
--L--x--5----5--5--5--x--|--5--x---------------|--5----5--5--5--5--x--5--|
--L--x--5----5--5--5--x--|--5--x---------------|--3----3--3--3--3--x--3--|
--L--x--3----3--3--3--x--|--3--x---------------|-------------------------|

E  E  E  E  E  E  E  E     Q    E  E  E  E  E  E     E  E  E  E  E  E  E  E   
--------------------------|-------------------------|--------------------------|
--------------------------|-------------------------|--------------------------|
--------------------------|-------------------------|--------------------------|
--L--5--5--5--5--5--5--5--|--4----4--4--4--4--x--4--|--L--4--4--4--4--4--4--4--|
--L--3--3--3--3--3--3--3--|--2----2--2--2--2--x--2--|--L--2--2--2--2--2--2--2--|
--------------------------|-------------------------|--------------------------|

E  E  E  E  E  E  E  E     Q    E  E  E  E  E  E     E  E  E  E  E  E  E  E   
--------------------------|-------------------------|--------------------------|
--------------------------|-------------------------|--------------------------|
--------------------------|-------------------------|--------------------------|
--3--3--3--3--3--3--x--2--|--L----2--2--2--2--2--2--|--7--7--7--7--7--7--7--7--|
--1--1--1--1--1--1--x--0--|--L----0--0--0--0--0--0--|--5--5--5--5--5--5--5--5--|
--------------------------|-------------------------|--------------------------|

E  E  E  E  E  E  E  E     E  E  E  E  E  E  E  E     E  E  Q    E  E  E  E   
--------------------------|--------------------------|-------------------------|
--------------------------|--------------------------|-------------------------|
--------------------------|--------------------------|-------------------------|
--7--7--7--7--7--7--7--7--|--7--x--7--x--7--7--7-----|-------------------------|
--5--5--5--5--5--5--5--5--|--5--x--5--x--5--5--5--5--|--L--5--5----5--5--5--5--|
--------------------------|-----------------------3--|--L--3--3----3--3--3--3--|

E  E  E  E  E  E  E  E     E  E  Q    E  E  E  E     E  E  E  E  E  E  E  E   
--------------------------|-------------------------|--------------------------|
--------------------------|-------------------------|--------------------------|
--------------------------|-------------------------|--------------------------|
--9--x--9--x--9--9--9-----|-------------------------|--7--x--7--x--7--7--7-----|
--7--x--7--x--7--7--7--7--|--L--7--7----7--7--7--7--|--5--x--5--x--5--5--5--5--|
-----------------------5--|--L--5--5----5--5--5--5--|-----------------------3--|

E  E  Q    E  E  E  E     E  E  E  E  E  E  E  E     E  E  E  E  E  E  E  E   
-------------------------|--------------------------|--------------------------|
-------------------------|--------------------------|--------------------------|
-------------------------|--------------------------|--------------------------|
-------------------------|--5--5--5--5--5--5--5--5--|--5--5--5--5--5--5--5--5--|
--L--5--5----5--5--5--5--|--3--3--3--3--3--3--3--3--|--3--3--3--3--3--3--3--3--|
--L--3--3----3--3--3--3--|--------------------------|--------------------------|

S  S  S S  S  S S  S  S  S  S  S  S  S  S  S  
-----|-----|-----|-----------------------------------10-12-13-15-|
-----|-----|-----|--------------------------10-12-13-------------|
-----|-----|-----|------------------9-10-12----------------------|
-----|-----|-----|----------9-10-12------------------------------|
-----|-----|-----|--8-10-12--------------------------------------|
-----|-----|-----|-----------------------------------------------|

Q.      S  S  E.   E.   E      E.   E.   E   Q     Q       
--16------15-13------13-------|--18------------------18br----|
----------------16--------16--|-------16---15--16------------|
------------------------------|------------------------------|
------------------------------|------------------------------|
------------------------------|------------------------------|
------------------------------|------------------------------|

Q.      E   E.   E.   E      E   E    E   E   E   Q.       
---L---------------15-------|--15--21b--23--23--23--21b------|
----------16--16--------16--|--------------------------------|
----------------------------|--------------------------------|
----------------------------|--------------------------------|
----------------------------|--------------------------------|
----------------------------|--------------------------------|

E   E   E   E   E   E   E   E      E   E   E   E   E   Q.       
--16--15--------------------------|-------------------------------|
----------16----------------------|-------------------------------|
--------------15--13--12--13--12--|-------------------------------|
----------------------------------|--13---------------------------|
----------------------------------|------13--11--10--11--10------|
----------------------------------|-------------------------------|

E   E  E   E   E  E  E   E      E   E   E   Q      Q    E   
--------------------------------|------------------------------|
--------------------------------|------------------------------|
----------------------8--9--10--|--12--12--12--12br----L-------|
-----------9--10--12------------|------------------------------|
--/10--12-----------------------|------------------------------|
--------------------------------|------------------------------|

S S S  S  S S  S  S S  S  S S  S S  S S  
------------------------------------------|
--9-9-0-13-13-0-11-11-0-15-15-0-13-0-16-0-|
------------------------------------------|
------------------------------------------|
------------------------------------------|
------------------------------------------|

S  S S  S  S S  S  S S  S  S S  S  S  E   
--10-10-0-13-13-0-11-11-0-15-15-0-13-13-15--|
--------------------------------------------|
--------------------------------------------|
--------------------------------------------|
--------------------------------------------|
--------------------------------------------|

T  T  T  T  T  T  T T  T  T  T  T  T  T  T T  
   S  S  S  S  S  S  S S  S  S  S  S  S  S  S S  
--18-15-16-18-15-16-18-0-20-16-18-20-16-18-20-0-|
------------------------------------------------|
------------------------------------------------|
------------------------------------------------|
------------------------------------------------|
------------------------------------------------|

T  T  T  T  T  T  T T                                                
   S  S  S  S  S  S  S S  H               E   E  E   E   E  E   E   E   
--22-18-20-22-18-20-22-0-22brb--------|--------------------------------|
--------------------------------------|--------------------------------|
--------------------------------------|---------------------9--10--12--|
--------------------------------------|----------9--10--12-------------|
--------------------------------------|--10--12------------------------|
--------------------------------------|--------------------------------|

E   E   E  E   E   E   E   E      W                   W                 
--------------------------------|--------------------|-------------------|
------------------------10--12--|--------------------|-------------------|
-------------9--10--12----------|--------------------|-------------------|
--9--10--12---------------------|--12----------------|--L----------------|
--------------------------------|--10----------------|--L----------------|
--------------------------------|--------------------|-------------------|

-------------------|-------------------|-------------------|-------------------|
-------------------|-------------------|-------------------|-------------------|
-------------------|-------------------|-------------------|-------------------|
-------------------|-------------------|-------------------|-------------------|
-------------------|-------------------|-------------------|-------------------|
-------------------|-------------------|-------------------|-------------------|

-------------------|-------------------|-------------------|-------------------|
-------------------|-------------------|-------------------|-------------------|
-------------------|-------------------|-------------------|-------------------|
-------------------|-------------------|-------------------|-------------------|
-------------------|-------------------|-------------------|-------------------|
-------------------|-------------------|-------------------|-------------------|

E  E  E  E  E  E  E  E     E  E  Q    E  E  E  E     E  E  E  E  E  E  E  E   
--------------------------|-------------------------|--------------------------|
--------------------------|-------------------------|--------------------------|
--------------------------|-------------------------|--------------------------|
--7--x--7--x--7--7--7-----|-------------------------|--9--x--9--x--9--9--9-----|
--5--x--5--x--5--5--5--5--|--L--5--5----5--5--5--5--|--7--x--7--x--7--7--7--7--|
-----------------------3--|--L--3--3----3--3--3--3--|-----------------------5--|

E  E  Q    E  E  E  E     E  E  E  E  E  E  E  E     E  E  Q    E  E  E  E   
-------------------------|--------------------------|-------------------------|
-------------------------|--------------------------|-------------------------|
-------------------------|--------------------------|-------------------------|
-------------------------|--7--x--7--x--7--7--7-----|-------------------------|
--L--7--7----7--7--7--7--|--5--x--5--x--5--5--5--5--|--L--5--5----5--5--5--5--|
--L--5--5----5--5--5--5--|-----------------------3--|--L--3--3----3--3--3--3--|

E  E  E  E  E  E  E  E     E  E  E  E  E  E  E  E     Q    E  E  E  E  E  E   
--------------------------|--------------------------|-------------------------|
--------------------------|--------------------------|-------------------------|
--------------------------|--------------------------|-------------------------|
--5--5--5--5--5--5--5--5--|--5--5--5--5--5--5--5--5--|--5----5--5--5--5--x--5--|
--3--3--3--3--3--3--3--3--|--3--3--3--3--3--3--3--3--|--3----3--3--3--3--x--3--|
--------------------------|--------------------------|-------------------------|

E  E  E  E  E  E  E  E     Q    E  E  E  E  E  E     E  E  E  E  E  E  E  E   
--------------------------|-------------------------|--------------------------|
--------------------------|-------------------------|--------------------------|
--------------------------|-------------------------|--------------------------|
--L--5--5--5--5--5--5--5--|--4----4--4--4--4--x--4--|--L--4--4--4--4--4--4--4--|
--L--3--3--3--3--3--3--3--|--2----2--2--2--2--x--2--|--L--2--2--2--2--2--2--2--|
--------------------------|-------------------------|--------------------------|

E  E  E  E  E  E  E  E     Q    E  E  E  E  E  E     E  E  E  E  E  E  E  E   
--------------------------|-------------------------|--------------------------|
--------------------------|-------------------------|--------------------------|
--------------------------|-------------------------|--------------------------|
--3--3--3--3--3--3--x--2--|--L----2--2--2--2--2--2--|--7--7--7--7--7--7--7--7--|
--1--1--1--1--1--1--x--0--|--L----0--0--0--0--0--0--|--5--5--5--5--5--5--5--5--|
--------------------------|-------------------------|--------------------------|

E  E  E  E  E  E  E  E     E  E  E  E  E  E  E  E     E  E  Q    E  E  E  E   
--------------------------|--------------------------|-------------------------|
--------------------------|--------------------------|-------------------------|
--------------------------|--------------------------|-------------------------|
--7--7--7--7--7--7--7--7--|-----x--7--x--7--7--7-----|-------------------------|
--5--5--5--5--5--5--5--5--|-----x--5--x--5--5--5--5--|--L--5--5----5--5--5--5--|
--------------------------|-----------------------3--|--L--3--3----3--3--3--3--|

E  E  E  E  E  E  E  E     E  E  Q    E  E  E  E     E  E  E  E  E  E  E  E   
--------------------------|-------------------------|--------------------------|
--------------------------|-------------------------|--------------------------|
--------------------------|-------------------------|--------------------------|
--9--x--9--x--9--9--9-----|-------------------------|--7--x--7--x--7--7--7-----|
--7--x--7--x--7--7--7--7--|--L--7--7----7--7--7--7--|--5--x--5--x--5--5--5--5--|
-----------------------5--|--L--5--5----5--5--5--5--|-----------------------3--|

E  E  Q    E  E  E  E     E  E  E  E  E  E  E  E     E  E  E  E  H         
-------------------------|--------------------------|-----------------------|
-------------------------|--------------------------|-----------------------|
-------------------------|--------------------------|-----------------------|
-------------------------|--5--5--5--5--5--5--5--5--|--5--5--x--5--L--------|
--L--5--5----5--5--5--5--|--3--3--3--3--3--3--3--3--|--3--3--x--3--L--------|
--L--3--3----3--3--3--3--|--------------------------|-----------------------|

W                   W                  
-------------------|-------------------||
-------------------|-------------------||
-------------------|-------------------||
--L----------------|--L----------------||
--L----------------|--L----------------||
-------------------|-------------------||



Duration Legend
---------------
W - whole
H - half
Q - quarter
E - 8th
S - 16th
T - 32nd
X - 64th
. - note dotted
|-n-|  - n-tuplets

Tablature Legend
----------------
L - tied note
x - dead note
g - grace note
(n) - ghost note
> - accentuded note
NH - natural harmonic
AH - artificial harmonic
TH - tapped harmonic
SH - semi harmonic
PH - pitch harmonic
h - hammer on
p - pull off
b - bend
br - bendRelease
pb - preBend
pbr - preBendRelease
brb - bendReleaseBend
n/ - tremolo bar dip
n - tremolo bar dive
-/n - tremolo bar Release up
/n - tremolo bar inverted dip
/n - tremolo bar return
-n - tremolo bar Release down
S - shift slide
s - legato slide
/ -  slide into from below or out of upwards
 -  slide into from above or out of downwards
~ - vibrato
W - wide vibrato
tr - trill
TP - tremolo picking
T - tapping
S - slap
P - pop
< - fade in
^ - brush up
v - brush down

Tablature player for this song:
 
 
J-rocks - Lepaskan Diriku Tab :: indexed at Ultimate Guitar.
Lepaskan Diriku tabs @ 911Tabs

Quick tip, so you can enjoy Lepaskan Diriku Tab even more:

YourChords.com Guitar Chords and Tabs Archive is currently indexing over 240'000 songs from 21'000+ different artists. And new chords just keep on coming in, so you will surely never run out of them.

Show us your talent, perform Lepaskan Diriku Tab!

Here you can post a video or audio performance. Tell me more ...
Where can we find your performance? Tell me more ...
Your comment:
Please, log in to post your performance.