Artists by letter: A B C D E F G H I J K L M N O P Q R S T U V W X Y Z 0-9
 
Reckoning Song Tab
CAPO VI

INTRO
e|-----------------------------------------------------------------|
B|-----------------------------------------------------------------|
G|-----------------2-----------------------------------------------|
D|-----------------0h2---------------------------------------------|
A|---0-------------------------------------------------------------|
E|-----------------------------------------------------------------|

e|-------0-------0-------0-------0-------1-------1-------0-------0-|
B|-----1-------1-------1-------1-------1-------1-------1-------1---|
G|---2-------2-------2-------2-------2-------2-------2-------2-----|
D|---------2-------2-------2-------3-------3-------2-------2-------|
A|-0---------------------------------------------------------------|
E|-----------------------------------------------------------------|

e|-------0-------0-------0-------0-------0-------0-------0-------0-|
B|-----1-------1-------1-------1-------1-------1-------1-------1---|
G|---0-------0-------0-------0-------0-------0-------0-------0-----|
D|---------2-------2-------2---------------0-------0-------0-------|
A|-3-------------------------------2-------------------------------|
E|-----------------------------------------------------------------|

e|-------0-------0-------0-------0-------1-------1-------0-------0-|
B|-----1-------1-------1-------1-------1-------1-------1-------1---|
G|---2-------2-------2-------2-------2-------2-------2-------2-----|
D|---------2-------2-------2-------3-------3-------2-------2-------|
A|-0---------------------------------------------------------------|
E|-----------------------------------------------------------------|

e|-------0-------0-------0-------0-------0-------0-------0-------0-|
B|-----1-------1-------1-------1-------1-------1-------1-------1---|
G|---0-------0-------0-------0-------0-------0-------0-------0-----|
D|---------2---------------0---------------0---------------0-------|
A|-3---------------2---------------3---------------2---------------|
E|-----------------------------------------------------------------|

e|-----0-----------------------------------------------------------|
B|----1------------------------------------------------------------|
G|---2-------------------------------------------------------------|
D|--2--------------------------------------------------------------|
A|-0---------------------------------------------------------------|
E|-----------------------------------------------------------------|

CHORUS
  Am                                C
e|----0---0---0---0---0---0---0---0---0---0---0---0---0---0---0----0)-|
B|---1---1---1---1---1---1---1---1---1---1---1---1---1---1---1----1---|
G|--2---2---2---2---2---2---2---2---0---0---0---0---0---0---0----0----|
D|-----2---2---2---2---2---2---2-------2---2---2---2---2---2---(2-----|
A|-0-------------------------------3----------------------------------|
E|--------------------------------------------------------------------|
  G7                                F
e|----0---0---0---0---0---0---0---0---1---1---1---1---1---1---1---1---|
B|---1---1---1---1---1---1---1---1---1---1---1---1---1---1---1---1----|
G|--0---0---0---0---0---0---0---0---2---2---2---2---2---2---2---2-----|
D|-----0---0---0---0---0---0---0-------3---3---3---3---3---3---3------|
A|-2-------------------------------3----------------------------------|
E|--------------------------------------------------------------------|
  Am                                C
e|----0---0---0---0---0---0---0---0---0---0---0---0---0---0---0----0--|
B|---1---1---1---1---1---1---1---1---1---1---1---1---1---1---1----1---|
G|--2---2---2---2---2---2---2---2---0---0---0---0---0---0---0----0----|
D|-----2---2---2---2---2---2---2-------2---2---2---2---2---2----2-----|
A|-0-------------------------------3----------------------------------|
E|--------------------------------------------------------------------|
  G7                                F
e|----0---0---0---0---0---0---0---0------------------------------------|
B|---1---1---1---1---1---1---1---1-------------------------------------|
G|--0---0---0---0---0---0---0---0--------------------------------------|
D|-----0---0---0---0---0---0---0---------------------------------------|
A|-2-------------------------------------------------------------------|
E|---------------------------------1-----------------------------------|
                       Ritenuto 
REFRAIN
  Am               C              G7               F
e|---0---0---0---0---0---0---0---0---0---0---0---0---1---1---1---1-----|
B|---1---1---1---1---1---1---1---1---1---1---1---0---1---1---1---1-----|
G|---2---2---2---2---0---0---0---0---0---0---0---0---2---2---2---2-----|
D|-----2-------2-------2-------2-------0-------0-------3-------3-------|
A|-0-------0-------3-------3-------2-------2---------------3-----------|
E|-------------------------------------------------1-------------------|
  Am               C              G7               F
e|---0---0---0---0---0---0---0---0---0---0---0---0---1---1-------------|
B|---1---1---1---1---1---1---1---1---1---1---1---0---1---1-------------|
G|---2---2---2---2---0---0---0---0---0---0---0---0---2---2-------------|
D|-----2-------2-------2-------2-------0-------0-------3---------------|
A|-0-------0-------3-------3-------2-------2---------------3-----------|
E|-------------------------------------------------1-------------------|
                                         Ritenuto 
CHORUS
  Am                                C
e|----0---0---0---0---0---0---0---0---0---0---0---0---0---0---0----0--|
B|---1---1---1---1---1---1---1---1---1---1---1---1---1---1---1----1---|
G|--2---2---2---2---2---2---2---2---0---0---0---0---0---0---0----0----|
D|-----2---2---2-------2---2---2-------2---2---2---2---2---2----0-----|
A|-0---------------0---------------3----------------------------------|
E|--------------------------------------------------------------------|
  G7                                F
e|----0---0---0---0---0---0---0---0---1---1---1---1---1---1---1---1---|
B|---1---1---1---1---1---1---1---1---1---1---1---1---1---1---1---1----|
G|--0---0---0---0---0---0---0---0---2---2---2---2---2---2---2---2-----|
D|-----0---0---0---0---0---0-----------3---3---3---3---3---3---3------|
A|-2---------------------------2---3----------------------------------|
E|--------------------------------------------------------------------|
  Am                                C
e|----0---0---0---0---0---0---0---0---0---0---0---0---0---0---0----0--|
B|---1---1---1---1---1---1---1---1---1---1---1---1---1---1---1----1---|
G|--2---2---2---2---2---2---2---2---0---0---0---0---0---0---0----0----|
D|-----2---2---2---2---2---2-----------2---2---2---2---2---2---(0)----|
A|-0---------------------------0---3----------------------------------|
E|--------------------------------------------------------------------|
       G7                                F
e|----0---0---0---0---0---0---0---0----------------1-------------------|
B|---1---1---1---1---1---1---1---1-------------1-----------------------|
G|--0---0---0---0---0---0---0---0----------2---------------------------|
D|-----0---0---0---0---0---0---0-------3-------------------------------|
A|-2-------------------------------------------------------------------|
E|---------------------------------1-----------------------------------|
                       Ritenuto 
REFRAIN
  Am               C              G7               F
e|---0---0---0---0---0---0---0---0---0---0---0---0---1---1---1---1-----|
B|---1---1---1---1---1---1---1---1---1---1---1---0---1---1---1---1-----|
G|---2---2---2---2---0---0---0---0---0---0---0---0---2---2---2---2-----|
D|-----2-------2-------2-------2-------0-------0-------3-------3-------|  x4
A|-0-------0-------3-------3-------2-------2---------------3-----------|
E|-------------------------------------------------1-------------------|
  Am               C              G7               F
e|---0---0---0---0---0---0---0---0---0---0---0---0---1---1---1---1-----|
B|---1---1---1---0---1---1---1---1---1---1---1---0---1---1---1---1-----|
G|---2---2---2---0---0---0---0---0---0---0---0---0---2---2---2---2-----|
D|-----2-------2-------2-------2-------0-------0-------3-------3-------|
A|-0-------0-------3-------3-------2-------2---------------3-----------|
E|-------------------------------------------------1-------------------|
     SUPER Slow !!!
  Am               C              G7               F
e|---0---0---0---0---0---0---0---0---0---0---0---0---------------------|
B|---1---1---1---1---1---1---1---1---1---1---1---0---------------------|
G|---2---2---2---2---0---0---0---0---0---0---0---0---------------------|
D|-----2-------2-------2-------2-------0-------0-----------------------|
A|-0-------0-------3-------3-------2-------2---------------------------|
E|-------------------------------------------------1-------------------|
                                         Ritenuto
Tablature player for this song:
 
 
Asaf Avidan - Reckoning Song Tab :: indexed at Ultimate Guitar.
Reckoning Song tabs @ 911Tabs

Quick tip, so you can enjoy Reckoning Song Tab even more:

Try out the AutoScroller option ... It scrolls the page for you, so you can totally focus on nailing that solo. You can choose among different speeds using your mouse or your keyboard (keys 0, 1, 2 and 3).

Show us your talent, perform Reckoning Song Tab!

Here you can post a video or audio performance. Tell me more ...
Where can we find your performance? Tell me more ...
Your comment:
Please, log in to post your performance.