Artists by letter: A B C D E F G H I J K L M N O P Q R S T U V W X Y Z 0-9
 
Huling Sayaw Tab
Title: Huling Sayaw
Artist: Kamikazee
Album: Romantico

Tabbed by: Jorence C. Liwanag



Intro:  E - F#m - A      C#m - E - A

Guitar 1: Led Tuyay

power chords - heavy tune
e|------------------------------------------------------------------------|
b|------------------------------------------------------------------------|
g|-------------------------------------66666666-99999999-2222222222222222-|
d|--22222222-44444444-7777777777777777-66666666-99999999-2222222222222222-|
a|--22222222-44444444-7777777777777777-44444444-77777777-0000000000000000-|
e|--00000000-22222222-5555555555555555------------------------------------|

e|------------------------------------------------------------------------|
b|------------------------------------------------------------------------|
g|-------------------------------------66666666-99999999-2222222222222222-|
d|--22222222-44444444-7777777777777777-66666666-99999999-2222222222222222-|
a|--22222222-44444444-7777777777777777-44444444-77777777-0000000000000000-|
e|--00000000-22222222-5555555555555555------------------------------------|

Guitar 2: Jomal Linao

e|---------------------------------------------------------------|
b|---------------------------------------------------------------|
g|--------------------------------66666666--99999999--22222222---|
d|--22222222--44444444--77777777--66666666--99999999--22222222---|
a|--22222222--44444444--77777777--44444444--77777777--00000000---|
e|--00000000--22222222--55555555---------------------------------|

Do this part at 00:00:20
e|-------------------------------------------|--------------------------|
b|-------------------------------------------|--------------------------|
g|-------------------13-13-13-13-13-13-13-13-|-14-14-14-14-14-14-14-14--|
d|--******pickSlide--x--x--x--x--x--x--x--x--|-x--x--x--x--x--x--x--x---|
a|--******pickSlide--11-11-11 11 11 11 11 11-|-12-12-12-12-12-12-12-12--|
e|--******pickSlide--------------------------|--------------------------|

e|--------------------------------------------------|
b|-14----------14----------14-----------------------|
g|-14-14-14-14-14-14-14-14-14-14-14-14-14-14-14-14--|
d|-x--x--x--x--x--x--x--x--x--x--x--x--x--x--x--x---|
a|-12-12-12-12-12-12-12-12-12-12-12-12-12-12-12-12--|
e|--------------------------------------------------|

00:00:29
e|-------------------------|--------------------------|
b|-------------------------|--------------------------|
g|-13-13-13-13-13-13-13-13-|-14-14-14-14-14-14-14-14--|
d|-x--x--x--x--x--x--x--x--|-x--x--x--x--x--x--x--x---|
a|-11-11-11 11 11 11 11 11-|-12-12-12-12-12-12-12-12--|
e|-------------------------|--------------------------|

e|----------------------------------------------------|
b|--12-12-12-12-12-12-12-12-12-12-12-12-12-12-12-12---|
g|--x--x--x--x--x--x--x--x--x--x--x--x--x--x--x--x----|
d|--9--9--9--9--9--9--9--9--9--9--9--9--9--9--9--9----|
a|--0--0--0--0--0--0--0--0--0--0--0--0--0--0--0--0----|
e|--x--x--x--x--x--x--x--x--x--x--x--x--x--x--x--x----|





Verse 1:  C#m- B - A  ||OR||  C#m- (E) - B - A

Guitar 1: Led Tuyay

e|-----------------0----------------0----|
b|----------------0-0--------------0-0---|
g|-6-6-66x--4-4--4---4-4x--22222--2---2--|
d|-6-6-66x--4-4-44x--------22222-2-------|
a|-4-4-44x--2-2-2x---------00000---------|
e|---------------------------------------|

e|-----------------0----------------0----|
b|----------------0-0--------------0-0---|
g|-6-6-66x--4-4--4---4-4x--22222--2---2--|
d|-6-6-66x--4-4-44x--------22222-2-------|
a|-4-4-44x--2-2-2x---------00000---------|
e|---------------------------------------|

e|-----------------0----------------0----|
b|----------------0-0--------------0-0---|
g|-6-6-66x--4-4--4---4-4x--22222--2---2--|
d|-6-6-66x--4-4-44x--------22222-2-------|
a|-4-4-44x--2-2-2x---------00000---------|
e|---------------------------------------|

e|-----------------0----------------0----|
b|----------------0-0--------------0-0---|
g|-6-6-66x--4-4--4---4-4x--22222--2---2--|
d|-6-6-66x--4-4-44x--------22222-2-------|
a|-4-4-44x--2-2-2x---------00000---------|
e|---------------------------------------|

Guitar 2: Jomal Linao

e|--0-0-0000--0-0-00--0000000----0-----|
b|--0-0-0000--0-0-00--0000000---0-0----|
g|--9-9-9999--9-9-99--9999999--9---9---|
d|--9-9-9999--9-9-99--9999999-9--------|
a|--x-x-xxxx--x-x-xx--0000000----------|
e|--9-9-9999--7-7-77--xxxxxxx----------|

e|--0-0-0000--0-0-00--0000000----0-----|
b|--0-0-0000--0-0-00--0000000---0-0----|
g|--9-9-9999--9-9-99--9999999--9---9---|
d|--9-9-9999--9-9-99--9999999-9--------|
a|--x-x-xxxx--x-x-xx--0000000----------|
e|--9-9-9999--7-7-77--xxxxxxx----------|

e|--0-0-0000--0-0-00--0000000----0-----|
b|--0-0-0000--0-0-00--0000000---0-0----|
g|--9-9-9999--9-9-99--9999999--9---9---|
d|--9-9-9999--9-9-99--9999999-9--------|
a|--x-x-xxxx--x-x-xx--0000000----------|
e|--9-9-9999--7-7-77--xxxxxxx----------|

e|--0-0-0000--0-0-00--0000000----0-----|
b|--0-0-0000--0-0-00--0000000---0-0----|
g|--9-9-9999--9-9-99--9999999--9---9---|
d|--9-9-9999--9-9-99--9999999-9--------|
a|--x-x-xxxx--x-x-xx--0000000----------|
e|--9-9-9999--7-7-77--xxxxxxx----------|

Pre-Chorus: A--

Guitar 1: Led Tuyay

e|--------------------------------------------------------|
b|--------------------------------------------------------|
g|--xxxxxxxxxxxxx-xxxxxxxxxxxxxxxx-xxxxxxxxxxxxxxx-xxx-2--|
d|--2222222222222-2222222222222222-222222222222222-222-2--|
a|--0000000000000-4444000000000000-444400000000000-444-0--|
e|--------------------------------------------------------|

Guitar 2: Jomal Linao

e|---------------------------------------------------------------| |--12H--|
b|---------------------------------------------------------------| |--12H--|
g|---6-6-6-6-6-6-8-8-9-9-9-9-9-9-9-9999--6-6-6-6-6-6-8-9-9-9-9---| |-------|
d|--7-7-7-7-7-7-9-9-9-9-9-9-9-9-9--9999-7-7-7-7-7-7-9-9-9-9-9----| |-------|
a|---------------------------------------------------------------| |-------|
e|---------------------------------------------------------------| |-------|



Chorus 1:  E - F#m - A      C#m - E - A

Guitar 1: Led Tuyay

power chords - heavy tune
e|------------------------------------------------------------------------|
b|------------------------------------------------------------------------|
g|-------------------------------------66666666-99999999-2222222222222222-|
d|--22222222-44444444-7777777777777777-66666666-99999999-2222222222222222-|
a|--22222222-44444444-7777777777777777-44444444-77777777-0000000000000000-|
e|--00000000-22222222-5555555555555555------------------------------------|

e|------------------------------------------------------------------------|
b|------------------------------------------------------------------------|
g|-------------------------------------66666666-99999999-2222222222222222-|
d|--22222222-44444444-7777777777777777-66666666-99999999-2222222222222222-|
a|--22222222-44444444-7777777777777777-44444444-77777777-0000000000000000-|
e|--00000000-22222222-5555555555555555------------------------------------|

Guitar 2: Jomal Linao

e|---------------------------------------------------------------|
b|---------------------------------------------------------------|
g|--------------------------------66666666--99999999--22222222---|
d|--22222222--44444444--77777777--66666666--99999999--22222222---|
a|--22222222--44444444--77777777--44444444--77777777--00000000---|
e|--00000000--22222222--55555555---------------------------------|

e|-------------------------------------------|--------------------------|
b|-------------------------------------------|--------------------------|
g|-------------------13-13-13-13-13-13-13-13-|-14-14-14-14-14-14-14-14--|
d|--******pickSlide--x--x--x--x--x--x--x--x--|-x--x--x--x--x--x--x--x---|
a|--******pickSlide--11-11-11 11 11 11 11 11-|-12-12-12-12-12-12-12-12--|
e|--******pickSlide--------------------------|--------------------------|

e|--------------------------------------------------|
b|-14----------14----------14-----------------------|
g|-14-14-14-14-14-14-14-14-14-14-14-14-14-14-14-14--|
d|-x--x--x--x--x--x--x--x--x--x--x--x--x--x--x--x---|
a|-12-12-12-12-12-12-12-12-12-12-12-12-12-12-12-12--|
e|--------------------------------------------------|

e|-------------------------|--------------------------|
b|-------------------------|--------------------------|
g|-13-13-13-13-13-13-13-13-|-14-14-14-14-14-14-14-14--|
d|-x--x--x--x--x--x--x--x--|-x--x--x--x--x--x--x--x---|
a|-11-11-11 11 11 11 11 11-|-12-12-12-12-12-12-12-12--|
e|-------------------------|--------------------------|

e|----------------------------------------------------|
b|--12-12-12-12-12-12-12-12-12-12-12-12-12-12-12-12---|
g|--x--x--x--x--x--x--x--x--x--x--x--x--x--x--x--x----|
d|--9--9--9--9--9--9--9--9--9--9--9--9--9--9--9--9----|
a|--0--0--0--0--0--0--0--0--0--0--0--0--0--0--0--0----|
e|--x--x--x--x--x--x--x--x--x--x--x--x--x--x--x--x----|





Verse 2:  C#m- B - A  ||OR||  C#m- (E) - B - A

Guitar 1: Led Tuyay

e|-----------------0----------------0----|
b|----------------0-0--------------0-0---|
g|-6-6-66x--4-4--4---4-4x--22222--2---2--|
d|-6-6-66x--4-4-44x--------22222-2-------|
a|-4-4-44x--2-2-2x---------00000---------|
e|---------------------------------------|

e|-----------------0----------------0----|
b|----------------0-0--------------0-0---|
g|-6-6-66x--4-4--4---4-4x--22222--2---2--|
d|-6-6-66x--4-4-44x--------22222-2-------|
a|-4-4-44x--2-2-2x---------00000---------|
e|---------------------------------------|

e|-----------------0----------------0----|
b|----------------0-0--------------0-0---|
g|-6-6-66x--4-4--4---4-4x--22222--2---2--|
d|-6-6-66x--4-4-44x--------22222-2-------|
a|-4-4-44x--2-2-2x---------00000---------|
e|---------------------------------------|

e|-----------------0----------------0----|
b|----------------0-0--------------0-0---|
g|-6-6-66x--4-4--4---4-4x--22222--2---2--|
d|-6-6-66x--4-4-44x--------22222-2-------|
a|-4-4-44x--2-2-2x---------00000---------|
e|---------------------------------------|

Guitar 2: Jomal Linao

e|--0-0-0000--0-0-00--0000000----0-----|
b|--0-0-0000--0-0-00--0000000---0-0----|
g|--9-9-9999--9-9-99--9999999--9---9---|
d|--9-9-9999--9-9-99--9999999-9--------|
a|--x-x-xxxx--x-x-xx--0000000----------|
e|--9-9-9999--7-7-77--xxxxxxx----------|

e|--0-0-0000--0-0-00--0000000----0-----|
b|--0-0-0000--0-0-00--0000000---0-0----|
g|--9-9-9999--9-9-99--9999999--9---9---|
d|--9-9-9999--9-9-99--9999999-9--------|
a|--x-x-xxxx--x-x-xx--0000000----------|
e|--9-9-9999--7-7-77--xxxxxxx----------|

e|--0-0-0000--0-0-00--0000000----0-----|
b|--0-0-0000--0-0-00--0000000---0-0----|
g|--9-9-9999--9-9-99--9999999--9---9---|
d|--9-9-9999--9-9-99--9999999-9--------|
a|--x-x-xxxx--x-x-xx--0000000----------|
e|--9-9-9999--7-7-77--xxxxxxx----------|

e|--0-0-0000--0-0-00--0000000----0-----|
b|--0-0-0000--0-0-00--0000000---0-0----|
g|--9-9-9999--9-9-99--9999999--9---9---|
d|--9-9-9999--9-9-99--9999999-9--------|
a|--x-x-xxxx--x-x-xx--0000000----------|
e|--9-9-9999--7-7-77--xxxxxxx----------|

Pre-Chorus: A--

Guitar 1: Led Tuyay

e|--------------------------------------------------------|
b|--------------------------------------------------------|
g|--xxxxxxxxxxxxx-xxxxxxxxxxxxxxxx-xxxxxxxxxxxxxxx-xxx-2--|
d|--2222222222222-2222222222222222-222222222222222-222-2--|
a|--0000000000000-4444000000000000-444400000000000-444-0--|
e|--------------------------------------------------------|

Guitar 2: Jomal Linao

e|---------------------------------------------------------------| |--12H--|
b|---------------------------------------------------------------| |--12H--|
g|---6-6-6-6-6-6-8-8-9-9-9-9-9-9-9-9999--6-6-6-6-6-6-8-9-9-9-9---| |-------|
d|--7-7-7-7-7-7-9-9-9-9-9-9-9-9-9--9999-7-7-7-7-7-7-9-9-9-9-9----| |-------|
a|---------------------------------------------------------------| |-------|
e|---------------------------------------------------------------| |-------|



Chorus 2:

Guitar 1: Led Tuyay

power chords - heavy tune
e|------------------------------------------------------------------------|
b|------------------------------------------------------------------------|
g|-------------------------------------66666666-99999999-2222222222222222-|
d|--22222222-44444444-7777777777777777-66666666-99999999-2222222222222222-|
a|--22222222-44444444-7777777777777777-44444444-77777777-0000000000000000-|
e|--00000000-22222222-5555555555555555------------------------------------|

e|------------------------------------------------------------------------|
b|------------------------------------------------------------------------|
g|-------------------------------------66666666-99999999-2222222222222222-|
d|--22222222-44444444-7777777777777777-66666666-99999999-2222222222222222-|
a|--22222222-44444444-7777777777777777-44444444-77777777-0000000000000000-|
e|--00000000-22222222-5555555555555555------------------------------------|

Guitar 2: Jomal Linao
                     -00:02:28   (Paalam sa 'ting huling sayaw.......)
e|-------------------------------------------|--------------------------|
b|-------------------------------------------|--------------------------|
g|-------------------13-13-13-13-13-13-13-13-|-14-14-14-14-14-14-14-14--|
d|--******pickSlide--x--x--x--x--x--x--x--x--|-x--x--x--x--x--x--x--x---|
a|--******pickSlide--11-11-11 11 11 11 11 11-|-12-12-12-12-12-12-12-12--|
e|--******pickSlide--------------------------|--------------------------|

e|--------------------------------------------------|
b|-14----------14----------14-----------------------|
g|-14-14-14-14-14-14-14-14-14-14-14-14-14-14-14-14--|
d|-x--x--x--x--x--x--x--x--x--x--x--x--x--x--x--x---|
a|-12-12-12-12-12-12-12-12-12-12-12-12-12-12-12-12--|
e|--------------------------------------------------|

e|-------------------------|--------------------------|
b|-------------------------|--------------------------|
g|-13-13-13-13-13-13-13-13-|-14-14-14-14-14-14-14-14--|
d|-x--x--x--x--x--x--x--x--|-x--x--x--x--x--x--x--x---|
a|-11-11-11 11 11 11 11 11-|-12-12-12-12-12-12-12-12--|
e|-------------------------|--------------------------|

e|----------------------------------------------------|
b|--12-12-12-12-12-12-12-12-12-12-12-12-12-12-12-12---|
g|--x--x--x--x--x--x--x--x--x--x--x--x--x--x--x--x----|
d|--9--9--9--9--9--9--9--9--9--9--9--9--9--9--9--9----|
a|--0--0--0--0--0--0--0--0--0--0--0--0--0--0--0--0----|
e|--x--x--x--x--x--x--x--x--x--x--x--x--x--x--x--x----|

e|--16-16-16-16-16-16-16-16-16--0--0--0--0--0--0--0-----
b|--0--0--0--0--0--0--0--0--0---17-17-17-17-17-17-17----
g|--x--x--x--x--x--x--x--x--x---x--x--x--x--x--x--x-----
d|--18-18-18-18-18-18-18-18-18--16-16-16-16-16-16-16----
a|------------------------------------------------------
e|------------------------------------------------------

e|---------------------------------------------------------------|
b|--16-16-16-16-16-16-16-16-16-16-16-16-16-16-16-16--------------|
g|--x--x--x--x--x--x--x--x--x--x--x--x--x--x--x--x---------------|
d|--14-14-14-14-14-14-14-14-14-14-14-14-14-14-14-14--------------|
a|---------------------------------------------------------------|
e|---------------------------------------------------------------|

e|--0--0--0--0--0--0--0--0--0--12-12-12-12-12-12-12-----------|
b|--14-14-14-14-14-14-14-14-14-0--0--0--0--0--0--0------------|
g|------------------------------------------------------------|
d|------------------------------------------------------------|
a|------------------------------------------------------------|
e|------------------------------------------------------------|

e|----------------------------------------------------|
b|--12-12-12-12-12-12-12-12-12-12-12-12-12-12-12-12---|
g|--x--x--x--x--x--x--x--x--x--x--x--x--x--x--x--x----|
d|--9--9--9--9--9--9--9--9--9--9--9--9--9--9--9--9----|
a|--0--0--0--0--0--0--0--0--0--0--0--0--0--0--0--0----|
e|--x--x--x--x--x--x--x--x--x--x--x--x--x--x--x--x----|

Interlude: C#m - (E)---

Guitar 2: Jomal Linao
00:02:56
e|-----------------------------------|
b|-----------------------------------|
g|-----------------------------------|
d|-----------------------------------|
a|-----------------------------------|
e|--9999999999999000-999999999999000-|

e|----------------------------------------------|
b|----------------------------------------------|
g|----------------------------------------------|
d|----------------------------------------------|
a|--11-11-11-11-11-11-11-11-11-11-11-11-11------|
e|--9--9--9--9--9--9--9--9--9--9--9--9--9---000-|

e|-----------------------------------------------------|
b|--------------------------------------------------e--|
g|--------------------------------------------------s--|
d|-----------------------------------------------11-u--|
a|--11-11-11-11-11-11-11-11-11-11-11-11-11-------11-a--|
e|--9--9--9--9--9--9--9--9--9--9--9--9--9---000--9--p--|

e|----------------------------------------------|
b|----------------------------------------------|
g|----------------------------------------------|
d|----------------------------------------------|
a|--11-11-11-11-11-11-11-11-11-11-11-11-11------|
e|--9--9--9--9--9--9--9--9--9--9--9--9--9---000-|

e|----------------------------------------------|
b|----------------------------------------------|
g|----------------------------------------------|
d|----------------------------------------------|
a|--11-11-11-11-11-11-11-11-11-11-11-11-11------|
e|--9--9--9--9--9--9--9--9--9--9--9--9--9---000-|

e|----------------------------------------------|
b|----------------------------------------------|
g|----------------------------------------------|
d|----------------------------------------------|
a|--11-11-11-11-11-11-11-11-11-11-11-11-11------|
e|--9--9--9--9--9--9--9--9--9--9--9--9--9---000-|

e|----------------------------------------------|
b|----------------------------------------------|
g|----------------------------------------------|
d|----------------------------------------------|
a|--11-11-11-11-11-11-11-11-11-11-11-11-11------|
e|--9--9--9--9--9--9--9--9--9--9--9--9--9---000-|

e|-----------------------------------|
b|--14bend---16bend--14bend--14bend--|
g|--16bend---18bend--16bend--16bend--|
d|-----------------------------------|
a|-----------------------------------|
e|-----------------------------------|

Guitar 1: Led Tuyay

00:03:03
e|----------------------------------------------|
b|----------------------------------------------|
g|----------------------------------------------|
d|----------------------------------------------|
a|--11-11-11-11-11-11-11-11-11-11-11-11-11------|
e|--9--9--9--9--9--9--9--9--9--9--9--9--9---000-|

e|-----------------------------------------------------|
b|--------------------------------------------------e--|
g|--------------------------------------------------s--|
d|-----------------------------------------------11-u--|
a|--11-11-11-11-11-11-11-11-11-11-11-11-11-------11-a--|
e|--9--9--9--9--9--9--9--9--9--9--9--9--9---000--9--p--|

e|--------------------------------------------------------------------------
b|--------------------------------------------------------------------------
g|-6-8/9-9-9-9-9-86-6-6-6-6-8/9-9-9-9-98----------------------------------
d|----------------------------------------6-6-6-6-6/9-6/9-6/9-6/9-9-11-11-11
a|--------------------------------------------------------------------------
e|--------------------------------------------------------------------------

e|----------------0--0----0--0----|
b|------------12---12-12--14-14---|
g|--11--11--11--11----------------|
d|----11--11----------------------|
a|--------------------------------|
e|--------------------------------|

e|----------------------------------------------|
b|----------------------------------------------|
g|----------------------------------------------|
d|----------------------------------------------|
a|--11-11-11-11-11-11-11-11-11-11-11-11-11------|
e|--9--9--9--9--9--9--9--9--9--9--9--9--9---000-|

e|----------------------------------------------|
b|----------------------------------------------|
g|----------------------------------------------|
d|----------------------------------------------|
a|--11-11-11-11-11-11-11-11-11-11-11-11-11------|
e|--9--9--9--9--9--9--9--9--9--9--9--9--9---000-|

e|----------------------------------------------|
b|----------------------------------------------|
g|----------------------------------------------|
d|----------------------------------------------|
a|--11-11-11-11-11-11-11-11-11-11-11-11-11------|
e|--9--9--9--9--9--9--9--9--9--9--9--9--9---000-|

e|----------------------------------------------|
b|----------------------------------------------|
g|----------------------------------------------|
d|----------------------------------------------|
a|--11-11-11-11-11-11-11-11-11-11-11-11-11------|
e|--9--9--9--9--9--9--9--9--9--9--9--9--9---000-|

Chorus 3:

Both Guitar 1 and Guitar 2:

palm muted..
e|------------------------------------------------------------------------|
b|------------------------------------------------------------------------|
g|-------------------------------------66666666-99999999-2222222222222222-|
d|--22222222-44444444-7777777777777777-66666666-99999999-2222222222222222-|
a|--22222222-44444444-7777777777777777-44444444-77777777-0000000000000000-|
e|--00000000-22222222-5555555555555555------------------------------------|

e|------------------------------------------------------------------------|
b|------------------------------------------------------------------------|
g|-------------------------------------66666666-99999999-2222222222222222-|
d|--22222222-44444444-7777777777777777-66666666-99999999-2222222222222222-|
a|--22222222-44444444-7777777777777777-44444444-77777777-0000000000000000-|
e|--00000000-22222222-5555555555555555------------------------------------|

Last Chorus:

Guitar 1: Led Tuyay

power chords - heavy tune
e|------------------------------------------------------------------------|
b|------------------------------------------------------------------------|
g|-------------------------------------66666666-99999999-2222222222222222-|
d|--22222222-44444444-7777777777777777-66666666-99999999-2222222222222222-|
a|--22222222-44444444-7777777777777777-44444444-77777777-0000000000000000-|
e|--00000000-22222222-5555555555555555------------------------------------|

e|------------------------------------------------------------------------|
b|------------------------------------------------------------------------|
g|-------------------------------------66666666-99999999-2222222222222222-|
d|--22222222-44444444-7777777777777777-66666666-99999999-2222222222222222-|
a|--22222222-44444444-7777777777777777-44444444-77777777-0000000000000000-|
e|--00000000-22222222-5555555555555555------------------------------------|

Guitar 2: Jomal Linao
                     Paalam sa 'ting huling sayaw.......................
e|-------------------------------------------|--------------------------|
b|-------------------------------------------|--------------------------|
g|-------------------13-13-13-13-13-13-13-13-|-14-14-14-14-14-14-14-14--|
d|--******pickSlide--x--x--x--x--x--x--x--x--|-x--x--x--x--x--x--x--x---|
a|--******pickSlide--11-11-11 11 11 11 11 11-|-12-12-12-12-12-12-12-12--|
e|--******pickSlide--------------------------|--------------------------|

e|--------------------------------------------------|
b|-14----------14----------14-----------------------|
g|-14-14-14-14-14-14-14-14-14-14-14-14-14-14-14-14--|
d|-x--x--x--x--x--x--x--x--x--x--x--x--x--x--x--x---|
a|-12-12-12-12-12-12-12-12-12-12-12-12-12-12-12-12--|
e|--------------------------------------------------|

e|-------------------------|--------------------------|
b|-------------------------|--------------------------|
g|-13-13-13-13-13-13-13-13-|-14-14-14-14-14-14-14-14--|
d|-x--x--x--x--x--x--x--x--|-x--x--x--x--x--x--x--x---|
a|-11-11-11 11 11 11 11 11-|-12-12-12-12-12-12-12-12--|
e|-------------------------|--------------------------|

e|----------------------------------------------------|
b|--12-12-12-12-12-12-12-12-12-12-12-12-12-12-12-12---|
g|--x--x--x--x--x--x--x--x--x--x--x--x--x--x--x--x----|
d|--9--9--9--9--9--9--9--9--9--9--9--9--9--9--9--9----|
a|--0--0--0--0--0--0--0--0--0--0--0--0--0--0--0--0----|
e|--x--x--x--x--x--x--x--x--x--x--x--x--x--x--x--x----|

e|--16-16-16-16-16-16-16-16-16--0--0--0--0--0--0--0-----
b|--0--0--0--0--0--0--0--0--0---17-17-17-17-17-17-17----
g|--x--x--x--x--x--x--x--x--x---x--x--x--x--x--x--x-----
d|--18-18-18-18-18-18-18-18-18--16-16-16-16-16-16-16----
a|------------------------------------------------------
e|------------------------------------------------------

e|---------------------------------------------------------------|
b|--16-16-16-16-16-16-16-16-16-16-16-16-16-16-16-16--------------|
g|--x--x--x--x--x--x--x--x--x--x--x--x--x--x--x--x---------------|
d|--14-14-14-14-14-14-14-14-14-14-14-14-14-14-14-14--------------|
a|---------------------------------------------------------------|
e|---------------------------------------------------------------|

e|--0--0--0--0--0--0--0--0--0--12-12-12-12-12-12-12-----------|
b|--14-14-14-14-14-14-14-14-14-0--0--0--0--0--0--0------------|
g|------------------------------------------------------------|
d|------------------------------------------------------------|
a|------------------------------------------------------------|
e|------------------------------------------------------------|

e|----------------------------------------------------|
b|--12-12-12-12-12-12-12-12-12-12-12-12-12-12-12-12---|
g|--x--x--x--x--x--x--x--x--x--x--x--x--x--x--x--x----|
d|--9--9--9--9--9--9--9--9--9--9--9--9--9--9--9--9----|
a|--0--0--0--0--0--0--0--0--0--0--0--0--0--0--0--0----|
e|--x--x--x--x--x--x--x--x--x--x--x--x--x--x--x--x----|



Outro:

Guitar 2: Jomal Linao
00:04:36
e|----------|
b|----------|
g|----------|
d|----------|
a|----------|
e|--99999999|

Both Guitar 1 and Guitar 2:
00:04:38
e|----------------------------------------------|
b|----------------------------------------------|
g|----------------------------------------------|
d|----------------------------------------------|
a|--11-11-11-11-11-11-11-11-11-11-11-11-11------|
e|--9--9--9--9--9--9--9--9--9--9--9--9--9---000-|

e|----------------------------------------------|
b|----------------------------------------------|
g|----------------------------------------------|
d|----------------------------------------------|
a|--11-11-11-11-11-11-11-11-11-11-11-11-11------|
e|--9--9--9--9--9--9--9--9--9--9--9--9--9---000-|

e|----------------------------------------------|
b|----------------------------------------------|
g|----------------------------------------------|
d|----------------------------------------------|
a|--11-11-11-11-11-11-11-11-11-11-11-11-11------|
e|--9--9--9--9--9--9--9--9--9--9--9--9--9---000-|

e|----------------------------------------------|
b|----------------------------------------------|
g|----------------------------------------------|
d|----------------------------------------------|
a|--11-11-11-11-11-11-11-11-11-11-11-11-11------|
e|--9--9--9--9--9--9--9--9--9--9--9--9--9---000-|

--END
Tablature player for this song:
 
 
Kamikazee - Huling Sayaw Tab :: indexed at Ultimate Guitar.
Huling Sayaw tabs @ 911Tabs

About the artist behind Huling Sayaw Tab:

Kamikazee is a rock band from the Philippines composed of Jay Contreras (Lead Vocalist), Jomal Linao (Guitars/Back-up Vocals), Led Zeppelin Tuyay (Guitars), Jason "Puto" Astete (Bass Guitar) and Allan "Bords" Burdeos (drums).

Indexed at Wikipedia.

Show us your talent, perform Huling Sayaw Tab!

Here you can post a video or audio performance. Tell me more ...
Where can we find your performance? Tell me more ...
Your comment:
Please, log in to post your performance.