Artists by letter: A B C D E F G H I J K L M N O P Q R S T U V W X Y Z 0-9
 
Dare You To Move Tab
Tuning: Standard
Tabbed By: Vivian

Intro:
   E                A
e|-0----0---0---0---0--------------------------------------------|
B|-12---0---9---0---0--------------------------------------------|
G|-9----9---9---9---9--------------------------------------------|
D|-11---9---9---9---7--------------------------------------------|
A|-0----0---0---0---0--------------------------------------------|
E|---------------------------------------------------------------|

Verse 1:
   E                A   E                A   G   A
e|-0----0---0---0---0---0----0---0---0---0---0---0---------------|
B|-12---0---9---0---0---12---0---9---0---0---0---0---------------|
G|-9----9---9---9---9---9----9---9---9---9---7---9---------------|
D|-11---9---9---9---7---11---9---9---9---7---5---7---------------|
A|-0----0---0---0---0---0----0---0---0---0---0---0---------------|
E|---------------------------------------------------------------| 
   E                A   E                A   G   B
e|-0----0---0---0---0---0----0---0---0---0---0---0---------------|
B|-12---0---9---0---0---12---0---9---0---0---0---0---------------|
G|-9----9---9---9---9---9----9---9---9---9---7---8---------------|
D|-11---9---9---9---7---11---9---9---9---7---5---9---------------|
A|-0----0---0---0---0---0----0---0---0---0---0---9---------------|
E|-----------------------------------------------7---------------|

Chorus 1:
   E   B   A   B   E   B   A   B
e|-0---0---0---0---0---0---0---0---------------------------------|
B|-0---0---0---0---0---0---0---0---------------------------------|
G|-9---8---6---8---9---8---6---8---------------------------------|
D|-9---9---7---9---9---9---7---9---------------------------------|
A|-7---9---7---9---7---9---7---9---------------------------------|
E|-----7---5---7-------7---5---7---------------------------------|

Intro

Verse 2:
  C#m                 A C#m                 A   F#      A
e|--------------------0---------------------0---0---0---0--------|
B|--------------------0---------------------0---0---0---0--------|
G|-----9-----9-----9--6-----9------9-----9--6---3---3---6--------|
D|-----9-----9-----9--7-----9------9-----9--7---4---4---7--------|
A|-----9x----9x----9x-7-----9x-----9x----9x-7---4---4---7--------|
E|-7h9-97h9-97h9-9--5-7h9-9-7h9-97h9-9--5-0h2-0h2---5--------|

C#m                 A   F#      B
e|--------------------0---0---0---0------------------------------|
B|--------------------0---0---0---0------------------------------|
G|-----9-----9-----9--6---3---3---8------------------------------|
D|-----9-----9-----9--7---4---4---9------------------------------|
A|-----9x----9x----9x-7---4---4---9------------------------------|
E|-7h9-97h9-97h9-9--5-0h2-0h2---7------------------------------|

Chorus 1

Bridge:
   E   A   E   A  C#m  A   F#  B
e|-0---0---0---0---0---0---0---0---------------------------------|
B|-0---0---0---0---0---0---0---0---------------------------------|
G|-9---6---9---6---6---6---9---8---------------------------------|
D|-9---7---9---7---6---7---7---9---------------------------------|
A|-7---7---7---7---4---7---9---9---------------------------------|
E|-----5-------5-------5-------7---------------------------------|

Chorus 2:
   E   B   A   B   E   B   A  C#m  A   B   E
e|-0---0---0---0---0---0---0---0---0---0---0---------------------|
B|-0---0---0---0---0---0---0---0---0---0---0---------------------|
G|-9---8---6---8---9---8---6---6---8---8---1---------------------|
D|-9---9---7---9---9---9---7---6---7---9---2---------------------|
A|-7---9---7---9---7---9---7---4---7---9---2---------------------|
E|-----7---5---7-------7---5-------5---7---0---------------------|

| /  slide up
|   slide down
| h  hammer-on
| p  pull-off
| ~  vibrato
| +  harmonic
| x  Mute note
Tablature player for this song:
 
 
Jayesslee - Dare You To Move Tab :: indexed at Ultimate Guitar.
Dare You To Move tabs @ 911Tabs
People who played Jayesslee - Dare You To Move Tab also played these songs by Jayesslee:
Failure In Disguise Chords, Hero Chords, Unashamed Chords, Unashamed Chords, Gangnam Style Chords, Monday Morning Chords

Quick tip, so you can enjoy Dare You To Move Tab even more:

After the registration (which takes just 10 seconds, remember?) you will be able to use your profile - your very own piece of YourChords.com.

Show us your talent, perform Dare You To Move Tab!

Here you can post a video or audio performance. Tell me more ...
Where can we find your performance? Tell me more ...
Your comment:
Please, log in to post your performance.