Artists by letter: A B C D E F G H I J K L M N O P Q R S T U V W X Y Z 0-9
 

Autumn Song Tab
-------------------------------------------------------------------------------
			     THE AUTUMN SONG - ELLEGARDEN
-------------------------------------------------------------------------------
Tabbed by:Sherman Leung
Email:yayanime@hotmail.com

After months of searching, I found that there are absolutely no ELLEGARDEN tabs
on the net. Shocked to find this, as they are one of my favriout bands from japan.
This is one of their easier songs to play. As an extra, I'll even throw in the lyrics,
coutesy of some lyrics website.
Have Fun! 
Tuning: Standard Tuning (EADGBe)
 ------------------
|Guitar one (Rhythm)|
 ------------------
Riff 1 (Intro and Verse)
E|---------------------------------------------------------------------------|
B|---------------------------------------------------------------------------|
G|------------------44444444-------------------------------------------------|
D|------------------22222222-------------------------------------------------|
A|--6666666677777777--------22222222-----------------------------------------|
e|--4444444455555555--------00000000-----------------------------------------|
PM  ................................ 

RIff 2 (Intro)
E|---------------------------------------------------------------------------|
B|---------------------------------------------------------------------------|
G|------------------44444444-------------------------------------------------|
D|------------------22222222-------------------------------------------------|
A|--6666666677777777--------2~-----------------------------------------------|
e|--4444444455555555--------0~-----------------------------------------------|
PM  ................. 

Riff 3 (Chorus) 
e|---------------------------------------------------------------------------|
B|---------------------------------------------------------------------------|
G|-66666666------------------------------------------------------------------|
D|-66666666666666667777777722222222------------------------------------------|
A|-44444444666666667777777722222222------------------------------------------|
E|---------444444445555555500000000------------------------------------------|

Riff 4 (Fill)
e|-------------------|
B|-------------------|
G|---12^-12^~--------|
D|-66----------------|
A|-xx----------------|
E|-44----------------|
Guitar one's Song Structure
Riff 1 x3
Riff 2 x1
Riff 3 x4
Riff 1 x4
Riff 3 x4
Riff 4 x1
Riff 3 x4
(Break, Just Lead Guitar and Drums)
Riff 1 x1
Riff 2 x1
Riff 3 x8

==============================================================================
Guitar Two (Lead)

Intro
(Wait for Rhythm guitar to go through Riff 1 twice)
e|---------------------------------------------------------------------------|
B|---9---9---9---9---9---9---9---9-------------------------------------------|
G|--9-9-9-9-9-9-9-9-9-9-9-9-9-9-9-9-99~--------------------------------------|
D|-9---9---9---9---9---9---9---9---9-----------------------------------------|
A|---------------------------------------------------------------------------|
E|---------------------------------------------------------------------------|

Chorus
e|---------------------------------------------------------------------------|
B|---------------------------------------------------------------------------|
G|-66666666------------------------66666666----------------------------------|
D|-6666666666666666777777772222222266666666666666667777777722222222----------|
A|-4444444466666666777777772222222244444444666666667777777722222222----------|
E|---------444444445555555500000000--------444444445555555500000000----------|

in case you don't notice, there are two digit figures in this riff  (11, 12 and
13 not 1, 2 or 3)
e|-----------------------------------------------------------------------------|
B|-----------------------------------------------------------------------------|
G|-----131313131111111177778-6-8--/9-4-----11/9999-11/9999-8999----------|
D|-6666-x-x-x-x-x-x-x-xxxxxx-x-x--/x-x-76~--x/xxxx--x/xxxx-xxxx----------|
A|-xxxx11111111-9-9-9-955556-4-6--/7-2-xx~--9/7777--9/7777-6777----------|
E|-4444--------------------------------------54~-------------------------------|
I can't figure out the verse riff, or the solo, someone help please D:
-A Few Parts Missing-
(I'm sorry, blahblahblah)

After solo

e|---------------------------------------------------------------------------|
B|---9---9---9---9---9---9---9---9---9---9---9---9---------------------------|
G|--9-9-9-9-9-9-9-9-9-9-9-9-9-9-9-9-9-9-9-9-9-9-9-9--------------------------|
D|-9---9---9---9---9---9---9---9---9---9---9---9---9-------------------------|
A|---------------------------------------------------------------------------|
E|---------------------------------------------------------------------------|
Repeate that bit till chorus

Follow Rhythm guitar's Riff 3 four times, then:
e|-----------------------------------------------------------------------------|
B|-----------------------------------------------------------------------------|
G|-----131313131111111177778-6-8--/9-4-----------------------------------|
D|-6666-x-x-x-x-x-x-x-xxxxxx-x-x--/x-x-76~-------------------------------|
A|-xxxx11111111-9-9-9-955556-4-6--/7-2-xx~-------------------------------|
E|-4444--------------------------------------54~-------------------------------|

e|-----------------------------------------------------------------------------|
B|-----------------------------------------------------------------------------|
G|-----131313131111111177778-6-8--/9--------------------------------------|
D|-6666-x-x-x-x-x-x-x-xxxxxx-x-x--/x--------------------------------------|
A|-xxxx11111111-9-9-9-955556-4-6--/7--------------------------------------|
E|-4444------------------------------------------------------------------------|
Repeate twice and hold the last chord. Then you're finished! =D

[End]

| /  slide up
|   slide down
| h  hammer-on
| p  pull-off
| ~  vibrato
| +  harmonic
| x  Mute note
===============================================================================

Tablature player for this song:
 
 
Ellegarden - Autumn Song Tab :: indexed at Ultimate Guitar.
Autumn Song tabs @ 911Tabs
People who played Ellegarden - Autumn Song Tab also played these songs by Ellegarden:
Make A Wish Chords, Mr Feather Tab, Supernova Tab, Make A Wish Tab, Marry Me Chords, Lonesome Chords

About the artist behind Autumn Song Tab:

Ellegarden (typeset as "ELLEGARDEN" by the band and its fans) is a Japanese rock group that formed in December 1998 in Chiba, Japan. It includes drummer Hirotaka Takahashi, vocalist Takeshi Hosomi, guitarist Shinichi Ubakata, and bassist Yuichi Takada. Their names are usually abbreviated and is called "Elle". Ellegarden has a sound strikingly similar to some American pop punk bands, and sings in both Japanese and English. Their English lyrics (mostly written by Hosomi) are usually grammatically correct and generally perfectly pronounced. In the Summer 2006 issue of American J-rock magazine purple Sky (p.24), Takeshi was quoted as saying his English skills were improved by the time he spent working as a computer engineer in first Oakland, California and later in Japan where he had English speaking co-workers.

Ellegarden has been compared to famous artists of a similar pop-punk style, most notably Sum 41 (Ellegarden was the band's opening act on February 2005 during the Sum 41 Japan Tour 2005), Blink 182 and Good Charlotte. Their popularity comes from the sounds that they bring which has an emotional punch to it.

In 2006, Ellegarden performed in numerous Japanese Summer Music Festivals, such as Fuji Rock, Summer Sonic, Nano Mugen Fes and Rising Sun Rock Festival.

Their final tour of 2006 features the American band Allister - the bands became friends during SXSW 2006. They also supported Foo Fighters in their concert at Osaka Castle Hall.

On May 2, 2008 it was announced that the band would be going on hiatus when the following message was posted on the band's official website:

ELLEGARDEN has been in the process of creating a new album since last year, however, during the band’s activities, there arose a difference in opinion regarding the motivation for creating a new album. We no longer feel we are able to create an album that we would be satisfied with, and after much discussion we arrived at the conclusion to end the creation of the album and suspend the band’s activities indefinitely. All previously decided shows (including shows not yet announced) up until early September 2008 will still be performed.

We want to thank everyone who has supported ELLEGARDEN from the bottom of our hearts. In order to once again create new music as ELLEGARDEN, each of us wants to work on our own personal growth and development. Thank you for everything.

ELLEGARDEN Leader, Shinichi Ubukata

Indexed at Wikipedia.

Show us your talent, perform Autumn Song Tab!

Here you can post a video or audio performance. Tell me more ...
Where can we find your performance? Tell me more ...
Your comment:
Please, log in to post your performance.