Artists by letter: A B C D E F G H I J K L M N O P Q R S T U V W X Y Z 0-9
 
Sweet Annie Tab
You can e-mail corrections to me:
stealedswheels@hotmail.com

Song is played in E flat tuning

Intro:
C,C,G

e|-------------------------------------------------------------------------|
B|-------------------------------------------------------------------------|
G|---4h5p4p0----------0-----------0----------------------------------------|
D|-------------------4-----2---0-------------------------------------------|
A|-------------------------------------------------------------------------|
E|------------------------------------3------------------------------------|



G
I been burning Bright
       C            G
For so long I can't remember
G                C                       D             Am7
Pretty girls and late night bars seem to be my line of work
G                              C              G
Believe me when I say, I can't stay this high forever
C                  G                     D             G
This man's had all he can stand, time to lay this body down
 
      C,C,G
Sweet Annie
      C               G   
Can I stay with you a while
           C                  G           D
Cause this roads been putting miles on my heart,
                                G,C,G    
Sweetheart I've been livin in a fantasy
        C                  G 
But one day Lightning will strike
       C                   G 
And my bark will lose it's bite
            D
Don't' give up on me
C      G,C,G
Sweet Annie.
 
 
 
      G,C,G
Sweet Annie
         C              G
I know I promised you a life
        G                  C                 D        Am
But an empty bed and the words I said don't carry any weight
G          C         G                 C               G
If I could take back yesterday, Find a way to start it over
C                G                    D                 G
Turn around, put that bottle down and pray it's not too late
 
 
C,C,G
Sweet Annie
      C               G
Can I stay with you a while
C                             G           D
Cause this roads been putting miles on my heart,
Am                              G,C,G 
Sweetheart I've been livin in a fantasy
        C                  G
But one day Lightning will strike
       C                   G
And my bark will lose it's bite
            D
Don't' give up on me
          C
What will be will be
 
C     G  
Sweet Annie.
 
 
C
Turn out the light
                     Em
These hands alone to hold you
              D
Fall all over you
         Em
All over again
C                             G
Come a little closer so I can show you
   Bm                     Em
My heart still beats fast for you
    Am        D        C,C,G
All over, and over again

C,C,G                               C,C,D                                                    
 
                                   
e|--------------------------------------------------------------------------|
B|--------------------------------------------------------------------------|
G|---4h5p4p0-------0-----------0-----------------------------0--------------|
D|--------------4-------2----0----------------0------4--------4-----2-----0-|
A|--------------------------------------------------------------------------|
E|-------------------------------3-----------------------------------------3| 
 
 Whole band rests except guitar and violin
e|---------------------------------------------------------/3-5-7-8-10------|
B|---3h5p3---------------------------------------------------3-3-3--7-------|
G|-----------5-4-5----2h4p2p0----0-----------------0-2-4-5----------7-------|
D|-----------------------------4-----2h5p2p0---0----0-0-0-0---------7-------|
A|-------------------------------------------3------------------------------|
E|--------------------------------------------------------------------------| 
 
play twice:
C,G  C,G,D
 
C,C,G
Sweet Annie
      C               G
Can I stay with you a while
C                             G           D
Cause this roads been putting miles on my heart,
Am                              G,C,G 
Sweetheart I've been livin in a fantasy
        C                  G
But one day Lightning will strike
       C                   G
And my bark will lose it's bite
            D
Don't' give up on me
 
C     G  
Sweet Annie.

Tabbed By Jim.
Tablature player for this song:
 
 
Zac Brown Band - Sweet Annie Tab :: indexed at Ultimate Guitar.
Sweet Annie tabs @ 911Tabs

Quick tip, so you can enjoy Sweet Annie Tab even more:

If you don't really know how to deal with "Absus4" chord and his equally confusing brothers, just put the mouse cursor over them and you will be shown a helpful chord diagram.

Show us your talent, perform Sweet Annie Tab!

Here you can post a video or audio performance. Tell me more ...
Where can we find your performance? Tell me more ...
Your comment:
Please, log in to post your performance.