Artists by letter: A B C D E F G H I J K L M N O P Q R S T U V W X Y Z 0-9

 
Begitu Indah Tab
E - E - C#m(C#sus9) - C#m
E - E - C#m(C#sus9) - C#m 2x (use Lick 1)

e|---------------------------------------------|
B|-------5p4-5~~~---5/7-5-7--------9p7-9~~~----|
G|---------------------------------------------|
D|----6-------------------------9--------------|
A|---------------------------------------------|
E|---------------------------------------------|

e|------------------|
B|-------5p4-5~~~---|
G|------------------|
D|----6-------------|
A|------------------|
E|------------------|

e|--------------------------|
B|----5/7-4~~~-----4-5~~~---|
G|-------------4-6----------|
D|--------------------------|
A|--------------------------|
E|--------------------------|

e|-------------------------------|
B|----7/9-7~~~----10/12 10~~~----|
G|-------------------------------|
D|-------------------------------|
A|-------------------------------|
E|-------------------------------|

 E - C#m - C#m (use Lick 1)
              E - E - C#m - C#m (use Lick 1)

A.H.~~~~~~~~~~~~~~~~~~~~~~~~~~~~~~~~~~~~~~~~~~~~~~~~~~~~~~~~~~~~~~~~~|
e|---------------------7(19)~~~------------------------------7(19)~~~--------|
B|----5(17)-7(19)-9(21)------9(21)~~~-------5(17)-7(19)-9(21)------9(21)~~~--|
G|---------------------------------------------------------------------------|
D|---------------------------------------------------------------------------|
A|---------------------------------------------------------------------------|
E|---------------------------------------------------------------------------|



A.H.~~~~~~~~~~~~~~~~~~~~~~~~~~~~~~~~~~~~~~~~~~~~~~~~~~~~~~~~~~~~~~~~~|
e|---------------------4(16)~~~------------------------------4(16)~~~--------|
B|----2(14)-4(16)-5(17)------5(17)~~~-------2(14)-4(16)-4(16)------5(17)~~~--|
G|---------------------------------------------------------------------------|
D|---------------------------------------------------------------------------|
A|---------------------------------------------------------------------------|
E|---------------------------------------------------------------------------|

A.H.~~~~~~~~~~~~~~~~~~~~~~~~~~~~~~~~~~~~~~~~~~~~~~~|
e|---------------------------------------------------------|
B|----2(14)-4(16)-5(17)~~~----------2(14)-4(16)-5(17)~~~---|
G|---------------------------------------------------------|
D|---------------------------------------------------------|
A|---------------------------------------------------------|
E|---------------------------------------------------------|

A.H.~~~~~~~~~~~~~~~~~~~~~~~~~~~~|
e|---------------------7(19)~~~---------|
B|----5(17)-7(19)-9(21)------9(21)~~~---|
G|--------------------------------------|
D|--------------------------------------|
A|--------------------------------------|
E|--------------------------------------|

e|----------------------7~~~-----|
B|----5/7---5-7-----9-----9~~~---|
G|-------------------------------|
D|-------------------------------|
A|-------------------------------|
E|-------------------------------|

e|-------------------4~~~--------|
B|----4-2-4---5~~~-----5~~~------|
G|-------------------------------|
D|-------------------------------|
A|-------------------------------|
E|-------------------------------|

e|----5-4--5-4--5-4--5-4---5-4-5-4---|
B|-----------------------------------|
G|-----------------------------------|
D|-----------------------------------| 8x
A|-----------------------------------|
E|-----------------------------------|

 
 
Padi - Begitu Indah Tab :: indexed at Ultimate Guitar.
Begitu Indah tabs @ 911Tabs

Quick tip, so you can enjoy Begitu Indah Tab even more:

After the registration (which takes just 10 seconds, remember?) you will be able to use your profile - your very own piece of YourChords.com.

Show us your talent, perform Begitu Indah Tab!

Here you can post a video or audio performance. Tell me more ...
Where can we find your performance? Tell me more ...
Your comment:
Please, log in to post your performance.