Artists by letter: A B C D E F G H I J K L M N O P Q R S T U V W X Y Z 0-9
 
Youre A Lie Tab
Title: You're A Lie
SubTitle: Slash0093
Artist: Slash featuring Myles Kennedy and The Conspirators
Album: Apocalyptic Love
Copyright: Slash0093
Tempo = 131
Steel Guitar

Legend
L - tied note
x - dead note
h - hammer on/pull off
b - bend
s - slide
~ - vibrato
g - ghost note
> - accentuated note
t - trill
M - palm mute
. - staccato
P - popping (bass)
S - slapping (bass)
+ - tapping
W - wide vibrato
< - fade in
w - whammy bar
= - tremolo picking
v - brush up
^ - brush down
V - pick stroke up
n - pick stroke down

D#|----------------|-------|----------------------------|-------|
A#|----------------|-------|----------------------------|-------|
F#|--4--3----------|-------|--2-----1-------------------|-------|
C#|--4--4----------|--6----|--2-----2-----------2s-4g---|-------|
G#|----------------|--4----|----------------------------|--2----|
D#|----------------|-------|----------------------------|--0----|

----------------------------------------------------|----------|-------|-------||
----------------------------------------------------|----------|-------|-------||
----------------------------------------------------|----------|-------|-------||
--3s-5--------4-------------------------------------|--4--4----|-------|-------||
--3s-5--------5-------------------------------------|--5--5----|--2----|--4----||
----------------------------------------------------|----------|--0----|--2----||

--------------------------||----------||--------------------------||----------||
--------------------------||--4--2----||--------------------------||--4--2----||
o------------------------o||--4--3----||o------------------------o||--4--3----||
o6s-9--------------------o||--4--4----||o6s-9--------------------o||--4--4----||
-4s-7-----2-----4--3--2---||-----4----||-4s-7-----2-----4--3--2---||-----4----||
----------0-----2--1--0---||----------||----------0-----2--1--0---||----------||

--------------------------||----------||---------------------------|
--------------------------||--7--7----||---------------------------|
o6s-9-----9--------------o||--8--6----||o--------------------------|
o---------8--------------o||--9--8----||o6M-6M-6M-6M-6M-6M-6M-6M---|
-4s-7-----7---------------||----------||-4M-4M-4M-4M-4M-4M-4M-4M---|
--------------------------||----------||---------------------------|

----------------------------|----------------------------|
----------------------------|----------------------------|
----------------------------|----------------------------|
--6M-6M-6M-6M-6M-6M-6M-6M---|----------------------------|
--3M-3M-3M-3M-3M-3M-3M-3M---|--2M-2M-2M-2M-2M-2M-2M-2M---|
----------------------------|--0M-0M-0M-0M-0M-0M-0M-0M---|

---------------------------|||
---------------------------|||
--------------------------o|||
--4M-4M-4M-4M-4M-4M-4M-4M-o|||
--1M-1M-1M-1M-1M-1M-1M-1M--|||
---------------------------|||

---------------------------------------------------|
-7M-7M-5M-5M-------7M-7M-5M-5M-------7M-7M-5M-5M---|
o------------6M-6M-------------6M-6M---------------|
o--------------------------------------------------|
---------------------------------------------------|
---------------------------------------------------|

----------------------------------------------------|
--5M-5M-4M-4M-------5M-5M-4M-4M-------5M-5M-4M-4M---|
--------------5M-5M-------------5M-5M---------------|
----------------------------------------------------|
----------------------------------------------------|
----------------------------------------------------|

----------------------------------------------------|
--7M-7M-5M-5M-------7M-7M-5M-5M-------7M-7M-5M-5M---|
--------------4M-4M-------------4M-4M---------------|
----------------------------------------------------|
----------------------------------------------------|
----------------------------------------------------|

---------------------------------------------------|||
--9M-9M-7M-7M-------9M-9M-7M-7M-------9M-9M-7M-7M--|||
--------------6M-6M-------------6M-6M-------------o|||
--------------------------------------------------o|||
---------------------------------------------------|||
---------------------------------------------------|||

--------------------------------------------------||
-12M12M10M10M------12M12M10M10M------12M12M10M10M-||
o------------9M-9M-------------9M-9M-------------o||
o------------------------------------------------o||
--------------------------------------------------||
--------------------------------------------------||

----------------------------------------------------|
--12-12-11-11-------12-12-11-11-------12-12-11-11---|
--------------11-11-------------11-11---------------|
----------------------------------------------------|
----------------------------------------------------|
----------------------------------------------------|

----------------------------------------------------||
--13-13---------------------------------------------||
--------13-13---------------------------------------||
--------------13-13-11-11-10------------------------||
----------------------------------------------------||
----------------------------------------------------||

--------------------------||----------||--------------------------||----------|
--------------------------||--4--2----||--------------------------||--4--2----|
o------------------------o||--4--3----||o------------------------o||--4--3----|
o6s-9--------------------o||--4--4----||o6s-9--------------------o||--4--4----|
-4s-7-----2-----4--3--2---||-----4----||-4s-7-----2-----4--3--2---||-----4----|
----------0-----2--1--0---||----------||----------0-----2--1--0---||----------|

----------------------------|----------------------------|
----------------------------|----------------------------|
----------------------------|----------------------------|
--6M-6M-6M-6M-6M-6M-6M-6M---|--6M-6M-6M-6M-6M-6M-6M-6M---|
--4M-4M-4M-4M-4M-4M-4M-4M---|--3M-3M-3M-3M-3M-3M-3M-3M---|
----------------------------|----------------------------|

----------------------------|----------------------------|
----------------------------|----------------------------|
----------------------------|----------------------------|
----------------------------|--4M-4M-4M-4M-4M-4M-4M-4M---|
--2M-2M-2M-2M-2M-2M-2M-2M---|--1M-1M-1M-1M-1M-1M-1M-1M---|
--0M-0M-0M-0M-0M-0M-0M-0M---|----------------------------|

----------------------------------------------------|
--7M-7M-5M-5M-------7M-7M-5M-5M-------7M-7M-5M-5M---|
--------------6M-6M-------------6M-6M---------------|
----------------------------------------------------|
----------------------------------------------------|
----------------------------------------------------|

----------------------------------------------------|
--5M-5M-4M-4M-------5M-5M-4M-4M-------5M-5M-4M-4M---|
--------------5M-5M-------------5M-5M---------------|
----------------------------------------------------|
----------------------------------------------------|
----------------------------------------------------|

----------------------------------------------------|
--7M-7M-5M-5M-------7M-7M-5M-5M-------7M-7M-5M-5M---|
--------------4M-4M-------------4M-4M---------------|
----------------------------------------------------|
----------------------------------------------------|
----------------------------------------------------|

----------------------------------------------------||
--9M-9M-7M-7M-------9M-9M-7M-7M-------9M-9M-7M-7M---||
--------------6M-6M-------------6M-6M---------------||
----------------------------------------------------||
----------------------------------------------------||
----------------------------------------------------||

--------------------------------------------------||
-12M12M10M10M------12M12M10M10M------12M12M10M10M-||
o------------9M-9M-------------9M-9M-------------o||
o------------------------------------------------o||
--------------------------------------------------||
--------------------------------------------------||

----------------------------------------------------|
--12-12-11-11-------12-12-11-11-------12-12-11-11---|
--------------11-11-------------11-11---------------|
----------------------------------------------------|
----------------------------------------------------|
----------------------------------------------------|

----------------------------------------------------||
--13-13---------------------------------------------||
--------13-13---------------------------------------||
--------------13-13-11-11-10------------------------||
----------------------------------------------------||
----------------------------------------------------||

--------------------------||----------||--------------------------||----------|
--------------------------||--4--2----||--------------------------||--4--2----|
o------------------------o||--4--3----||o------------------------o||--4--3----|
o6s-9--------------------o||--4--4----||o6s-9--------------------o||--4--4----|
-4s-7-----2-----4--3--2---||-----4----||-4s-7-----2-----4--3--2---||-----4----|
----------0-----2--1--0---||----------||----------0-----2--1--0---||----------|

----------------------------------------------------|
----------------------------------------------------|
--2-----------2-----2M-2M-2M-2M-2-----2-----2-------|
--2-----------2-----2M-2M-2M-2M-2-----2-----2-------|
--0-----------0-----0M-0M-0M-0M-0-----0-----0-------|
----------------------------------------------------|

----------------------------|----------------------------|
----------------------------|----------------------------|
--2g----2-------------------|-----------------------4L---|
--2g----2-------------------|--4-----4--4--4--4----------|
--0g----0-------------------|--4-----4--4--4--4----------|
-----------5M-4--4~----0----|--2-----2--2--2--2----------|

----------------------------|
--------------5-----5~------|
--4~-3-----------4--4~------|
--------4-------------------|
-----------4----------------|
----------------------------|

----------------------------------------------------|
----------------------------------------------------|
--2-----------2-----2M-2M-2M-2M-2-----2-----2-------|
--2-----------2-----2M-2M-2M-2M-2-----2-----2-------|
--0-----------0-----0M-0M-0M-0M-0-----0-----0-------|
----------------------------------------------------|

----------------------------|----------------------------|
----------------------------|----------------------------|
--2g----2-------------------|----------------------------|
--2g----2-------------------|--4-----4--4--4--4----------|
--0g----0-------------------|--4-----4--4--4--4----------|
-----------5M-4--4~----0----|--2-----2--2--2--2--3--4----|

----------------------------------------------------|
--------------------------------------9s----12------|
--------------------------5s----8-------------------|
--------------------6-------------------------------|
--------------6-------------------------------------|
--4-----4--4----------------------------------------|

----------------------------------------------------|--11L---11~-----|
--12b---------12b---------------------12h---9-------|-----------9----|
-----------------------------------------------11---|----------------|
----------------------------------------------------|----------------|
----------------------------------------------------|----------------|
----------------------------------------------------|----------------|

--12~---------12b------12---|
----------------------------|
----------------------------|
----------------------------|
----------------------------|
----------------------------|

--------------------------------9-------------------|
--11~---------------------9--12----12L---------12L--|
----------------------------------------------------|
----------------------------------------------------|
----------------------------------------------------|
----------------------------------------------------|

----------------------------|----------------|--------------------12------|
--12~---------12b------12L--|--12~---12L12b--|--12~---------11L---11L11L--|
----------------------------|----------------|----------------------------|
----------------------------|----------------|----------------------------|
----------------------------|----------------|----------------------------|
----------------------------|----------------|----------------------------|

--------------------------------12----14h---12------|
--11~---------------------14s------------------14---|
----------------------------------------------------|
----------------------------------------------------|
----------------------------------------------------|
----------------------------------------------------|

--14b---14b---------14h12---|--14b------14b------14h12---|
----------------------------|----------------------------|
----------------------------|----------------------------|
----------------------------|----------------------------|
----------------------------|----------------------------|
----------------------------|----------------------------|

--16b---------------------17-16-14-------16-14------|
-----------------------------------17-16-------17---|
----------------------------------------------------|
----------------------------------------------------|
----------------------------------------------------|
----------------------------------------------------|

----------------------------------------------------|
--16-14-------------17------------------------------|
--------16------------------------------------------|
--------------------------16h---------------14------|
-----------------------------------------------16---|
----------------------------------------------------|

----------------------------------------------------|
----------------------------------------------------|
----------------------------------------------------|
--16b---------16b---------------------16h14---------|
--------------------------------------------16------|
----------------------------------------------------|

----------------------------|----------------------------|
--13L---------13~16----17---|--14b---14~-----------------|
----------------------------|-----------------16----13---|
----------------------------|----------------------------|
----------------------------|----------------------------|
----------------------------|----------------------------|

----------------------------|
--19b---------19~---19h17---|
----------------------------|
----------------------------|
----------------------------|
----------------------------|

--19L---------------------------------------------------------------------19----
--------------------------------------------------------------------------------
--------------------------------------------------------------------------------
--------------------------------------------------------------------------------
--------------------------------------------------------------------------------
--------------------------------------------------------------------------------

---19-------17-------19-------17h---19h---17s---16-------17---------|
--------------------------------------------------------------------|
--------------------------------------------------------------------|
--------------------------------------------------------------------|
--------------------------------------------------------------------|
--------------------------------------------------------------------|

--16h---17h---16s---14-------16-------14h---16h---14s---12-------14-------12h---
--------------------------------------------------------------------------------
--------------------------------------------------------------------------------
--------------------------------------------------------------------------------
--------------------------------------------------------------------------------
--------------------------------------------------------------------------------

14h---12s---11-------12-------11h---12h---11s---9--------11---------|
--------------------------------------------------------------------|
--------------------------------------------------------------------|
--------------------------------------------------------------------|
--------------------------------------------------------------------|
--------------------------------------------------------------------|

--9h----11h---9-----19b---------------------------------19-------17-------19----
--------------------------------------------------------------------------------
--------------------------------------------------------------------------------
--------------------------------------------------------------------------------
--------------------------------------------------------------------------------
--------------------------------------------------------------------------------

---17h---19h---17s---16-------17-------16h---17h---16---------------|
---------------------------------------------------------19---------|
--------------------------------------------------------------------|
--------------------------------------------------------------------|
--------------------------------------------------------------------|
--------------------------------------------------------------------|

--16-------19---------------------------------------||
-----19h17----19b-----------------------------------||
----------------------------------------------------||
----------------------------------------------------||
----------------------------------------------------||
----------------------------------------------------||

--------------------------||----------||--------------------------||----------||
--------------------------||--4--2----||--------------------------||--4--2----||
o------------------------o||--4--3----||o------------------------o||--4--3----||
o6s-9--------------------o||--4--4----||o6s-9--------------------o||--4--4----||
-4s-7-----2-----4--3--2---||-----4----||-4s-7-----2-----4--3--2---||-----4----||
----------0-----2--1--0---||----------||----------0-----2--1--0---||----------||

--------------------------||----------||--------------------------||----------|
--------------------------||--4--2----||--------------------------||--7--7----|
o------------------------o||--4--3----||o6s-9-----9--------------o||--8--6----|
o6s-9--------------------o||--4--4----||o---------8--------------o||--9--8----|
-4s-7-----2-----4--3--2---||-----4----||-4s-7-----7---------------||----------|
----------0-----2--1--0---||----------||--------------------------||----------|

----------------------------------------------------|
--7M-7M-5M-5M-------7M-7M-5M-5M-------7M-7M-5M-5M---|
--------------6M-6M-------------6M-6M---------------|
----------------------------------------------------|
----------------------------------------------------|
----------------------------------------------------|

----------------------------------------------------|
--5M-5M-4M-4M-------5M-5M-4M-4M-------5M-5M-4M-4M---|
--------------5M-5M-------------5M-5M---------------|
----------------------------------------------------|
----------------------------------------------------|
----------------------------------------------------|

----------------------------------------------------|
--7M-7M-5M-5M-------7M-7M-5M-5M-------7M-7M-5M-5M---|
--------------4M-4M-------------4M-4M---------------|
----------------------------------------------------|
----------------------------------------------------|
----------------------------------------------------|

----------------------------------------------------|
--9M-9M-7M-7M-------9M-9M-7M-7M-------9M-9M-7M-7M---|
--------------6M-6M-------------6M-6M---------------|
----------------------------------------------------|
----------------------------------------------------|
----------------------------------------------------|

----------------------------------------------------|
--7M-7M-5M-5M-------7M-7M-5M-5M-------7M-7M-5M-5M---|
--------------6M-6M-------------6M-6M---------------|
----------------------------------------------------|
----------------------------------------------------|
----------------------------------------------------|

----------------------------------------------------|
--5M-5M-4M-4M-------5M-5M-4M-4M-------5M-5M-4M-4M---|
--------------5M-5M-------------5M-5M---------------|
----------------------------------------------------|
----------------------------------------------------|
----------------------------------------------------|

----------------------------------------------------|
--7M-7M-5M-5M-------7M-7M-5M-5M-------7M-7M-5M-5M---|
--------------4M-4M-------------4M-4M---------------|
----------------------------------------------------|
----------------------------------------------------|
----------------------------------------------------|

----------------------------------------------------|
--9M-9M-7M-7M---------------------------------------|
--------------6M-6M---------------------------------|
--------------------4-----------6M----4-----6M------|
--------------------4-----------6-----4M----6-------|
--------------------2-----------4M----2M----4M------|

----------------------------||
----------------------------||
----------------------------||
--6L----6s------------------||
--4L----4s------------------||
--4-------------------------||


Tablature player for this song:
 
 
Slash - Youre A Lie Tab :: indexed at Ultimate Guitar.
Youre A Lie tabs @ 911Tabs

Quick tip, so you can enjoy Youre A Lie Tab even more:

After the registration (which takes just 10 seconds, remember?) you will be able to use your profile - your very own piece of YourChords.com.

Show us your talent, perform Youre A Lie Tab!

Here you can post a video or audio performance. Tell me more ...
Where can we find your performance? Tell me more ...
Your comment:
Please, log in to post your performance.