Artists by letter: A B C D E F G H I J K L M N O P Q R S T U V W X Y Z 0-9
 
Pangarap Lang Kita Tab
Pangarap Lang Kita 
by Parokya Ni Edgar

Tab by: Rence Liwanag, PRO2CaLL

Capo on 1st Fret: This gives a Half-Step Up tune.

Intro:

E       F#    G#m               
e|-------------------7-------| 
b|-----------3--0-----8------|
g|---0-----------------7-7h8-|
d|--2------------------------|
a|-3---3s5-5-5---------------|
e|--------------0------------|

E       F#    G#m
e|--------------0----2h3p2---|
b|-----------3------------3--|
g|---0-----------------------|
d|--2------------------------|
a|-3---3s5-5-5---------------|
e|--------------0------------|

E       F#      B  Bbm G#m  F#
e|---------------------------------|
b|-----------3---------------------|
g|---0--------------0--0---0---0---|
d|--2------------------------0-----|
a|-3---3s5-5-5---------------------|
e|--------------0-3---2--0---------|

E     F#         B
e|-----------------3----------|
b|-----------------3----------|
g|---0-------------0----------|
d|--2------4h5p4---0----------|
a|-3---3s5---------2----------|
e|-----------------3----------|

Verse 1:

E       F#    G#m
      Mabuti    pa sa lotto
e|-----------------------0-----|
b|-----------3--0----0-----0---|
g|---0-----------------------0-|
d|--2------------------2-------|
a|-3---3s5-5-5-----------------|
e|--------------0--0-----------|

E       F#    G#m
       May pag-asang manalo
e|-----------------------0-----|
b|-----------3--0----0-----0---|
g|---0-----------------------0-|
d|--2------------------2-------|
a|-3---3s5-5-5-----------------|
e|--------------0--0-----------|

E       F#    G#m
     Di tulad sa'yo       Impo-
e|-----------------------0-----|
b|-----------3--0----0-----0---|
g|---0-----------------------0-|
d|--2------------------2-------|
a|-3---3s5-5-5-----------------|
e|--------------0--0-----------|

E     F#         B
    -sible
e|-----------------3----------|
b|-----------------3----------|
g|---0-------------0----------|
d|--2------4h5p4---0----------|
a|-3---3s5---------2----------|
e|-----------------3----------|

Verse 2:
Same as Verse1. Just repeat.

Prinsesa ka
Ako'y dukha
Sa T.V lang naman kasi 
May mangyayari

Chorus 1:
(Strum lang)

E9     F#     G#m
At kahit mahal kita

E9    F#    G#m
Wala akong magagawa

E9     F#    G-Gbm-Em-D
Tanggap ko oh aking sinta

E9     F#      G--A   
Tablature player for this song:
 
 
Parokya Ni Edgar - Pangarap Lang Kita Tab :: indexed at Ultimate Guitar.
Pangarap Lang Kita tabs @ 911Tabs

Quick tip, so you can enjoy Pangarap Lang Kita Tab even more:

YourChords.com Guitar Chords and Tabs Archive is currently indexing over 240'000 songs from 21'000+ different artists. And new chords just keep on coming in, so you will surely never run out of them.

Show us your talent, perform Pangarap Lang Kita Tab!

Here you can post a video or audio performance. Tell me more ...
Where can we find your performance? Tell me more ...
Your comment:
Please, log in to post your performance.