Artists by letter: A B C D E F G H I J K L M N O P Q R S T U V W X Y Z 0-9
 
Intuition Tab
Intuition CNBlue... CH
Intro

Uh come on yeah
E----------------------------------------------------------|
B---3-3-3-3-3-3---3-5-6----3-3-3-3-3---1-2-3---------------|
G----------------------------------------------------------|
D-0----------------------0---------------------------------|
A--------------------------------------3-4-5---------------|
E----------------------------------------------------------|

Naega nal ddeonal georan jikgami wa (Don't give up)
Jakkuman ireon jeoreon pinggyaedeulman (Don't give up)
E-------------------------------------------------------------|
B----3-3-3-3-3-3-3-3-------3-----------2-2-2-2-2-2-2-----2----|
G--------2---------------2-----------------2----------2-------|
D--------------------------------------0-0-0-0-0-0-0----------|
A----0-0-0-0-0-0-0-0------------------------------------------|
E-------------------------------------------------------------|

Neukkimi dallatdeon ssaneulhan Bye Bye (Don't give up)
Nan bonael su eobseo (Because I love you)
E-------------1-1-1----------------------4-------4------------|
B--3-3-3-3-3---------3--2-2-2-2-2-2--------7-5-7--------------|
G------2----------------2-2-2-2-2-2---------------------------|
D-------------------------------------------------------------|
A--0-0-0-0-0--------------------------------------------------|
E-------------------------------------------------------------|

Narul saranghanda hal ddaen eonjego ijae waseo Why you say goodbye
Idaero bonael sun eobseo (because I love you)
E-4-4------------4-4-------7-4-----4-4------------4------4~---|
B-----7-5-7-5--------7-5-7-------------7-5-7-5-----7-5-7------|
G-------------6--------------------------------6--------------|
D-------------------------------------------------------------|
A-------------------------------------------------------------|
E-------------------------------------------------------------|

(Whoa oh) [YongHwa] Iyuh anin iyuro
(Whoa oh oh) [YongHwa] Narul ddeonagaryeo hajima
E------------1---1-----------------1-3-5-3-3-0-5--------------|
B-3~-3-3-3-----2---3--6-5-3----3-3-----5-5-5-6-5--------------|
G-3~-3-3-3---------3--5-5-3----3-3-----5-5-5-5-5--------------|
D-3~-3-3-3---------3--5-5-3----3-3----------------------------|
A-------------------------------------------------------------|
E-------------------------------------------------------------|

[All] Please don't go go go jebal ddeonakajima
[YongHwa] Hanbeonmanirado nal dorabwajullae
[All] Please don't go go go seulpeun insanun shireo
[YongHwa] Neol saranghanikka dashi dorawa
E-------------------------------------------------------------/
B---5-6-5-------5-6-6-5-5--------------5-5-5-5----------------/
G-7-----7-7---7-------7-7-7--7-6-6-6-7-7-------7--------------/
D-----7---7-------7-7-----7--7-7-7-7-7---7-6---7--------------/
A-------------------------------------------------------------/
E-------------------------------------------------------------/

E------------------/
B------------------/
G------------------/ Ending for part 1.. This is my 1st tab, please rate..^^
D-7--5--3--2--0----/
A-7--5--3--2--0----/
E------------------/
Tablature player for this song:
 
 
Cn Blue - Intuition Tab :: indexed at Ultimate Guitar.
Intuition tabs @ 911Tabs
People who played Cn Blue - Intuition Tab also played these songs by Cn Blue:
Love Light Tab, Because I Miss You Tab, Love Chords, Arigatou Chords, Im A Loner Chords, Teardrops In The Rain Chords

Quick tip, so you can enjoy Intuition Tab even more:

You might want to transpose the song if it is too high or too low for you to sing. Just click the desired option while playing a song and all the chords will automatically be transponded into a new key.

Show us your talent, perform Intuition Tab!

Here you can post a video or audio performance. Tell me more ...
Where can we find your performance? Tell me more ...
Your comment:
Please, log in to post your performance.