Artists by letter: A B C D E F G H I J K L M N O P Q R S T U V W X Y Z 0-9

 
How We Love Tab
-------------------------------------------------------------------------------
                      How We Love - Ingrid Michaelson
-------------------------------------------------------------------------------
Tabbed by: Roger of Rohan
Email: roger at rogerhub.com (replace with a @)

Tuning: Standard (EADGBe)

This song is very straightforward and rather repetitive. Play along with the real
version to get a better feel for the rhythm.

Intro:
e|-------------------------------------------------------------|
B|-------------------------------------------------------------|
G|-------------------------------------------------------------|
D|-------------------------------------------------------------|
A|--2-----2h4------2------2h4------2------2h4-----2-------2----|
E|0-----0--------0------0--------0------0-------0------0----0--|

Verse:
e|-------------------------------------------------------------|
B|-------------------------------------------------------------|
G|-------------------------------------------------------------|
D|-------------------------------------------------------------|
A|--2-----2h4------2------2h4------2------2h4-----2-------2----|
E|0-----0--------0------0--------0------0-------0------0----0--|

e|-------------------------------------------------------------|
B|-------------------------------------------------------------|
G|-------------------------------------------------------------|
D|-------------------------------------------------------------|
A|--6-----6--------7------7--------2------2h4-----2-------2----|
E|4-----4--------5------5--------0------0-------0------0----0--|

Chorus:
e|-------------------------------------------------------------|
B|-------------------------------------------------------------|
G|-------------------------------------------------------------|
D|-----------------4------4--------6------6--------------------|
A|--7------7-----2------2--------4------4---------7-------7----|
E|5-----5---------------------------------------5------5-------|

e|-------------------------------------------------------------|
B|-------------------------------------------------------------|
G|-------------------------------------------------------------|
D|--4------4-------6-------------------------------------------|
A|2-----2--------4--------7--------2------2h4-----2-------2----|
E|----------------------5--------0------0-------0------0----0--|

Bridge:
e|-------------------------------------------------------------|
B|-------------------------------------------------------------|
G|-------------------------------------------------------------|
D|--6------6---------------------------------------------------|
A|4-----4----------7------7--------2------2-------6-------6----|
E|---------------5------5--------0------0---0---4------4-------|

e|-------------------------------------------------------------|
B|-------------------------------------------------------------|
G|-------------------------------------------------------------|
D|--6------6-----------------------4------4--------4------4----|
A|4-----4-----------------7------2------2--------2-----2-------|
E|---------------5------5--------------------------------------|

[Intro]

[Verse]
I knew a man who was afraid to love
to lay his heart on the bathroom rug
he drank his coffee in the same old mug
and sat in silence 'til the world fell numb
until the day when a girl came by
she had eyes like the rising tide
he felt a sharpness deep inside
the kind of ache that can't be satisfied

[Chorus]
we hate the rain when it fills up our shoes
but how we love when it washes our cars
we love to love when it fills up the room
but when it leaves oh we're cursing the stars

[Verse]
so he turned to the radio
and he went to a picture show
tried to find someone else who knows
all the hurt that a heart can hold
she smelled like cinnamon and winter clove
and sparked like firewood inside a stove
wanted to ask her just to sit and stay
instead he watched as she walked away

[Bridge]

[Chorus]
we hate the rain when it fills up our shoes
but how we love when it washes our cars
we love to love when it fills up the room
but when it leaves oh we're cursing the stars

we hate the rain when it fills up our shoes
but how we love when it washes our cars
we love to love when it fills up the room
but when it leaves oh we're cursing the stars

************************************

| /   slide up
| \   slide down
| h   hammer-on
| p   pull-off
| ~   vibrato
| +   harmonic
| x   Mute note
| b   Bend
| pb  Pre-bend
| br  Bend release
| pbr Pre-bend release
| brb Bend release bend

************************************
 
 
Ingrid Michaelson - How We Love Tab :: indexed at Ultimate Guitar.
How We Love tabs @ 911Tabs
People who played Ingrid Michaelson - How We Love Tab also played these songs by Ingrid Michaelson:
The Chain Chords, Everybody Chords, Die Alone Chords, Be Ok Chords, The Way I Am Tab, Keep Breathing Chords, Giving Up Chords, You And I Chords

About the artist behind How We Love Tab:

Ingrid Michaelson (born 1979)[1] is a New York-based indie-pop singer/songwriter.

Her music has been featured on numerous television shows as well as the in Old Navy Fall 2007 Fair Isle Sweater advertising campaign.[2] Most notably, Michaelson's songs have been selected as soundtracks for emotional scenes on Grey's Anatomy[3] and One Tree Hill.[4]

Indexed at Wikipedia.

Show us your talent, perform How We Love Tab!

Here you can post a video or audio performance. Tell me more ...
Where can we find your performance? Tell me more ...
Your comment:
Please, log in to post your performance.