Artists by letter: A B C D E F G H I J K L M N O P Q R S T U V W X Y Z 0-9
 
Fish Tab
-----------------------------------------------------------------------------
                                   FISH - Clara C
-----------------------------------------------------------------------------

Tabbed by: Yorick298

I know this isn't the prettiest tab to look at, but bear with me on this
one. If you listen to or watch Clara C play this, you'll get the hang of her
strumming pattern pretty quickly. The purpose of this tab is to help you
figure out the chords she's playing, which are somewhat hard to catch by
ear. So, I've omitted repetitions where I could help it, seeing as once you
get the fingering for a chord, you can figure out for yourself how many
times she plays that chord.

It's easiest to think of this song as being in 12:8 time, with each dash or
numeral on the tab representing an eighth note. The song is felt in four
(each beat being a dotted quarter).

TUNING: The high E should be dropped to a D. At that point, capo to whatever
key you're comfortable singing in. Clara C usually capos at the 8th fret,
placing this song in Eb major.

NOTE: Clara C is pretty liberal sometimes with her meter. Meaning, the song
isn't entirely in 4. Specifically, in the choruses, she likes to insert
extra beats right before she starts the "honey I love you" section.

VERSE 1

So this is it
d|0-0
B|0-0
G|4-4
D|5-5
A|5-5
E|3-0     (play four times)

My search is over
d|0-0
B|0-0
G|5-5
D|3-3
A|5-5
E|4-0     (play four times)

You filled a void I
d|0-0
B|1-0
G|0-0
D|2-0
A|0-0
E|0-0     (play four times)

Wasn't aware of
d|0--
B|1--
G|0--
D|1--
A|3--
E|x--     (play four times)

VERSE 2 (see Verse 1)
Every wrong door
And its wrong exit
I'll finally accept it
Cause it led me to you

CHORUS 1
Oh, my heart's home is you
d|------------x-----------|
B|------------1-----------|
G|------------0-----------|
D|5-----2-----2-----------|
A|x-----4-----3-----------|
E|3-----x-----x-----------|

The fiction I've dreamt of is finally reality with you
d|------------x-----------|
B|------------1-----------|
G|------------0-----------|
D|5-----3-----2-----------|
A|x-----5-----3-----------|
E|3-----x-----x-----------|

And you make me so happy that I'm scared to move
d|2--4--5--|2-----------|
B|0--0--0--|0-----------|
G|0--0--0--|0-----------|
D|2--1--0--|2-----------|
A|2--2--2--|4-----------|
E|0--0--0--|0-----------|

Honey I love you-hoo-hoo-hoo, you-hoo-hoo-hoo--|
d|------|0-00-00-00-0--------------------------|
B|1--3--|0-00-00-00-0--------------------------|
G|0--0--|0-00-00-00-0--------------------------|
D|2--4--|0-00-00-00-0--------------------------|
A|3--5--|2-02-02-02-0--------------------------|
E|x--x--|3-03-03-03-0--------------------------|

Y---------------|ou-hoo-hoo-hoo, you-hoo-hoo-hoo
d|0-00-00-00-0--|
B|0-00-00-00-0--|
G|0-00-00-00-0--|
D|2-02-02-02-0--|
A|3-03-03-03-0--|
E|0-00-00-00-0--|

Y---------------|ou-hoo-hoo-hoo, you-hoo-hoo-hoo
d|0-00-00-00-0--|
B|0-00-00-00-0--|
G|0-00-00-00-0--|
D|0-00-00-00-0--|
A|2-02-02-02-0--|
E|3-03-03-03-0--|

You
d|0-00-00-----|
B|0-00-00-----|
G|0-00-00-----|
D|2-02-02-----|
A|3-03-03-----|
E|0-00-00-----|

VERSE 3 (See Verse 1)
So this is love
I must not have known it
Before when I've said it
Must've been too rehearsed

VERSE 4 (See Verse 1)
Let's get married tomorrow
Cause I can't stop trembling
I've done enough waiting
Want to be there with you

CHORUS 2 (See Chorus 1)
My heart's home is you
The fiction I've dreamt of is finally reality with you
d|------------x-----------|
B|------------0-----1-----|
G|------------0-----0-----|
D|5-----3-----2-----2-----|
A|x-----5-----4-----3-----|
E|3-----x-----x-----x-----|

And you make me so happy that I'm scared to move
d|2--4--5--|2-----------|------------|
B|0--0--0--|0-----------|------------|
G|0--0--0--|0-----------|------------|
D|2--1--0--|2-----------|------------|
A|2--2--2--|4-----------|------------|
E|0--0--0--|0-----------|------------|

Honey I love, love you
d|------------|
B|------------|
G|------------|
D|2--5-43--2--|
A|3--6-65--4--|
E|------------|

Honey I love, I love you
d|0--0-00--0--|
B|0--0-00--0--|
G|0--0-00--0--|
D|2--5-43--2--|
A|3--6-65--4--|
E|0--0-00--0--|

Honey I love, I love you
d|0--0-00--0--|
B|0--0-00--0--|
G|0--0-00--0--|
D|2--5-43--2--|
A|3--6-65--4--|
E|0--0-00--0--|

Honey I love
d|0--0--|
B|0--0--|
G|0--0--|
D|2--5--|
A|3--6--|
E|0--0--|

You
d|0-00-00-00-0|0-00-00-|
B|0-00-00-00-0|0-00-00-|
G|0-00-00-00-0|0-00-00-|
D|0-00-00-00-0|0-00-00-|
A|2-02-02-02-0|2-02-02-|
E|3-03-03-03-0|3-03-03-|
Tablature player for this song:
 
 
Clara Chung - Fish Tab :: indexed at Ultimate Guitar.
Fish tabs @ 911Tabs
People who played Clara Chung - Fish Tab also played these songs by Clara Chung:
Off-beat Tab, Heartstrings Chords, Off-beat Chords, Off-beat Tab, Heartstrings Tab, Camel Song Chords

Quick tip, so you can enjoy Fish Tab even more:

If you don't really know how to deal with "Absus4" chord and his equally confusing brothers, just put the mouse cursor over them and you will be shown a helpful chord diagram.

Show us your talent, perform Fish Tab!

Here you can post a video or audio performance. Tell me more ...
Where can we find your performance? Tell me more ...
Your comment:
Please, log in to post your performance.