Artists by letter: A B C D E F G H I J K L M N O P Q R S T U V W X Y Z 0-9
 
I Wont Give Up Tab
Standard Tuning
Capo: 2nd fret

Intro & Verse:
e|------------------------------------------------------------------|
B|-------------------------------------------------------------0h2--|
G|---------------4-4---2-2---2-2--------------------2-2-2--2---2----|
D|0-0-0---2-4----5-5---0-0---0-0--x3---0-0-0--2-4--2-2-2--2--------|
A|---------------5---5-----0------------------------0----0---0------|
E|------------------------------------------------------------------|

e|--------------------------------------------------------|
B|--------------------------------------------------------|
G|-2------------------------------------------------------|
D|-2------------------------------------------------------|x2
A|---0----------------------------------------------------|
E|--------------------------------------------------------|

I.	(G - D -- then A)
When I look into your eyes, it's like watching the night skies
all the beautiful sunrise, well there's so much they hold
And just like them old stars, i see that you've come so far
To be right where you are, how old is your soul (A)

Chorus: (G, D, Bm, Asus2, G, D, Asus)
And i won't give up on us
Even if the skies get rough
I'm giving you all my love
I'm still looking u-up

II.
And when you're needing you space
To do some of navigating
I'll be here patiently waiting
To see what you find

Chorus II.  (G, D, Bm, Asus2, G, D, Asus)
See even the starts they burn
Some even fall to the earth
We got a lot to learn
God knows were worth it

No! I won't give u,up..

BRIDGE:  Em
I don't want to be someone who walks aways so easily, 
					A
I'm here to stay and make the difference that i can make
	Em
A difference is they do what allow to teach how to use the tools 
			      A
ang guess we got here, we got a lot at stake
	   C
And in the end you're still my friend and least we did intend for us to work we didn't 		
break, we didn't burn 
	  / C#
we had to learn, how to bend, without the world giving in, 
	  C				/C#		D
I had to learn what i got, and what i'm not and who i aa-a-am

Repeat CHORUS I.
   (..still looking up) 
Repeat Chorus again twice to the end :)
   (the end slows down)

enjoy..

Tablature player for this song:
 
 
Jason Mraz - I Wont Give Up Tab :: indexed at Ultimate Guitar.
I Wont Give Up tabs @ 911Tabs

About the artist behind I Wont Give Up Tab:

Jason Thomas Mraz (pronounced /'dʒeɪsən ˈɱɹæz/; born June 23, 1977) is an American singer-songwriter, born and raised in Mechanicsville, Virginia, a suburb of Richmond.[1]

Mraz is an eclectic artist with multiple and varied stylistic influences, including pop, rock, folk, jazz, country, and hip hop. He has played with various artists, including The Rolling Stones, Bob Dylan, Dave Matthews Band, James Blunt, Gavin DeGraw, Paula Cole, John Popper, Alanis Morissette, The Ohio Players, Rachael Yamagata, Jewel and Colbie Caillat.[citation needed]

Indexed at Wikipedia.

Show us your talent, perform I Wont Give Up Tab!

Here you can post a video or audio performance. Tell me more ...
Where can we find your performance? Tell me more ...
Your comment:
Please, log in to post your performance.