Artists by letter: A B C D E F G H I J K L M N O P Q R S T U V W X Y Z 0-9
 
Faithfully Tab
Band: Boyce Avenue
Cover Song: Faithfully
Tabbed by: RJ Busby
Tuning: Standard

Intro:
e|-------------------------------------------------------------------------|
B|------2--------------------------2---------------------------------------|
G|------3---1---4---3---1-3--------3---1---4---3---1-3---------------------|
D|-----------------------------1-------------------------------------------|
A|-------------------------------------------------------------------------|
E|--2----------------------------------------------------------------------|

e|-------------------------------------------------------------------------|
B|------2---1---4---3------------------------------------------------------|
G|------3------------------------------------------------------------------|
D|----------------------4---1---1--3--4------------------------------------|
A|--4----------------------------------------------------------------------|
E|-------------------------------------------------------------------------|

Verse: (Highway run...                                    ...mind)
e|-------------------------------------------------------------------------|
B|-----------------------2------------------------------2-------------2----|
G|--------------------------------------6----------------------------------|
D|---------------------4-------------4----------1---4---------------4------|
A|------------------4---------6--6-----------2-------------------4---------|
E|--------------2--------------------------------------------2-------------|

...hearts...                                       F#
e|---------------------------------------------------------------2----------|
B|-----------2------------2------------------------------2-------2----------|
G|---------------------------------------6-----------------------3----------|
D|---------4------------4-------------4----------1---4-----------4-----3----|
A|------4------------4---------6--6-----------2------------------4-----4----|
E|--2------------2-----------------------------------------------2-----1----|

Play Chorus 3x(times):
 (They say that the road ain't no place to start a family.....etc*)
       B                    Eb-minor
e|-----2-----------------------6------------------------------------------|
B|-----4-----------------------7------------------------------2-----------|
G|-----4-----------------------6------------------------------------------|
D|-----4-----------------------8----------------------------4-------------|
A|-----2-----------------------6-------------------------4----------------|
E|---------------------------------------------------2--------------------|

(Oh girl, you stand by me...)      
       C#             A#sus     C#
e|-----4---------------6--------4-----------------------------------------|
B|-----6---------------6--------6---6---7--6--6---------------------------|
G|-----6---------------6--------6---6---6--6--6---------------------------|
D|-----6---------------8--------6-----------------------------------------|
A|-----4---------------8--------4-----------------------------------------|
E|---------------------6--------------------------------------------------|

(I'm forever yours...      B       faithfully...)
e|--------------------------2----------------------|
B|--------------------------4----------------------|
G|-------4-3----------------4----------------------|
D|------------6--4----------4----------------------|
A|---------------------4----2----------------------|
E|-------4-----------6-----------------------------|
*Bridge to next verse*:
   (F#...*use pinky for hammer-on*)  (  ...*use pinky for hammer-on*)
e|-----2--------------------------------------------------------------|
B|--------2------------2-----------------7----------------------------|
G|-----------4--3-3-4h----------------------6------------6------------|
D|---------------------------------------------9--8-8-9h--------------|
A|------------------------------------6--6----------------------------|
E|--2--2--------------------------------------------------------------|

e|------------------------------------|
B|-----6-------------------4----------|
G|--------6-------------------4-------|
D|-----------6-------------------4----|
A|--4--4--------4-------2--2----------|
E|-----------------0------------------|

*Repeat Verse*
*Strum next Chorus using chords instead 3x(times)*
 (And being apart ain't easy on this love affair...)
       B                     Eb-minor                F#
e|-----2-----------------------6---------------------2--------------------|
B|-----4-----------------------7---------------------2--------------------|
G|-----4-----------------------6---------------------3--------------------|
D|-----4-----------------------8---------------------4--------------------|
A|-----2-----------------------6---------------------4--------------------|
E|---------------------------------------------------2--------------------|
 
 (Oh girl, you stand by me...)
        C#                    A#sus                  C#
e|------4-----------------------6---------------------4-------------------|
B|------6-----------------------6---------------------6-------------------|
G|------6-----------------------6---------------------6-------------------|
D|------6-----------------------8---------------------6-------------------|
A|------4-----------------------8---------------------4-------------------|
E|------------------------------6-----------------------------------------|

(I'm forever yours...              faithfully...)
      G#-minor		       B
e|-------4----------------------2----------------------------------------|
B|-------4----------------------4----------------------------------------|
G|-------4----------------------4----------------------------------------|
D|-------6----------------------4----------------------------------------|
A|-------6----------------------2----------------------------------------|
E|-------4---------------------------------------------------------------|

*Bridge*
   (F#...*use pinky for hammer-on*)  (  ...*use pinky for hammer-on*)
e|-----2--------------------------------------------------------------|
B|--------2------------2-----------------7----------------------------|
G|-----------4--3-3-4h----------------------6------------6------------|
D|---------------------------------------------9--8-8-9h--------------|
A|------------------------------------6--6----------------------------|
E|--2--2--------------------------------------------------------------|

*Repeat Chorus 3-4x(times)*

(Whoa oh, whoa oh oh oh...etc*) - strum

F#, Eb-minor,C#, B (repeat) 

Tablature player for this song:
 
 
Boyce Avenue - Faithfully Tab :: indexed at Ultimate Guitar.
Faithfully tabs @ 911Tabs

Quick tip, so you can enjoy Faithfully Tab even more:

If you don't really know how to deal with "Absus4" chord and his equally confusing brothers, just put the mouse cursor over them and you will be shown a helpful chord diagram.

Show us your talent, perform Faithfully Tab!

Here you can post a video or audio performance. Tell me more ...
Where can we find your performance? Tell me more ...
Your comment:
Please, log in to post your performance.