Artists by letter: A B C D E F G H I J K L M N O P Q R S T U V W X Y Z 0-9
 
Tracking Time Tab
Citizen
Tracking Time
Acoustic

E Standard tuning

SUMMARY:  Intro: G, A, Em, C
         Verses: G, G, A, A, Em, Em, C, C

Chords:

G    A    Em    C
--3----3----3----3--|
--3----3----3----3--|
--0----2----0----0--|
--0----0----2----2--|
--2----0----2----3--|
--3---------0-------|

Intro:
  G          A          Em           C
-------------|-----------|-1-0--------|
-------------|-----1-111-|-----1/3\1--|
--0--0-2-222-|-0-2-------|------------|
-------------|-----------|------------|
-------------|-----------|------------|
-------------|-----------|------------|

G                             A
I hear you've ended up fine,
Em                            C
And I've heard you're making out alright.
G                             A
I've heard you still don't like the cold outside,
Em                            C
And I've heard you still got trouble tracking time.

Intro again

G                             A
And I heard, you said one time,
Em                            C
That I never even fucking cross your mind.
G                             A
I guess I'll act like that's fine,
Em                            C
But you should know that you cross mine all the time.



Outro:
-------------|-----------|-1-0--1-3-6-5-3-1--|
-------------|-----1-111-|-------------------|
--0--0-2-222-|-0-2-------|-------------------|
-------------|-----------|-------------------|
-------------|-----------|-------------------|
-------------|-----------|-------------------|

--6-5-3-1----------------|
-------------------------|
-------------0-0--2-0----|
----------------------3--|
-------------------------|
-------------------------|
Tablature player for this song:
 
 
Citizen - Tracking Time Tab :: indexed at Ultimate Guitar.
Tracking Time tabs @ 911Tabs

Quick tip, so you can enjoy Tracking Time Tab even more:

YourChords.com Guitar Chords and Tabs Archive is currently indexing over 240'000 songs from 21'000+ different artists. And new chords just keep on coming in, so you will surely never run out of them.

Show us your talent, perform Tracking Time Tab!

Here you can post a video or audio performance. Tell me more ...
Where can we find your performance? Tell me more ...
Your comment:
Please, log in to post your performance.