Artists by letter: A B C D E F G H I J K L M N O P Q R S T U V W X Y Z 0-9
 
Bella Ciao Tab

Guitar 1:

e|------7----7------8-7----7-------------------------7---------------------|
B|--------10------------10------------7-10-8-----10----8---7---------------|
G|---------------------------9------9--------------------9-----------------|
D|-------------------------------------------------------------------------|
A|-------------------------------------------------------------------------|
E|-------------------------------------------------------------------------|

e|-7----7------8-7----7-------------------------7--------------------------|
B|---10------------10------------7-10-8-----10----8---7--------------------|
G|----------------------9------9--------------------9------------7-9-------|
D|-------------------------------------------------------------9-----------|
A|-------------------------------------------------------------------------|
E|-------------------------------------------------------------------------|



Guitar 2:

Em              G               D         
e|-------------------------------------------------------------------------|
B|-------------------------------------------------------------------------|
G|-----------------------------------------------------------0h2-----0h2---|
D|---------------------------0h2-----0h2-------------------0-------0-------|
A|-------------------------------------------0h2-----0h2-------------------|
E|-------------------------0-------0-------3-------3-----------------------|
            
           G               D               Em
e|-----------------------------------------------------------------0-------|
B|-----------------------------------------------------------------0-------|
G|---------------------------------------------------0h2-----------0-------|
D|---0h2-----0h2-----0h2-----0h2-------------------0---------------2-------|
A|-----------------------------------0h2-----0h2-------------------2-------|
E|-0-------0-------0-------0-------3-------3-----------------------0-------|



Em              
Una mattina mi son svegliato
                                 B7
O bella ciao, bella ciao, bella ciao ciao ciao
        Am               Em
Una mattina mi son svegliato
          B7         Em
Eo ho trovato l'invasor
 
        Em  
O partigiano porta mi via
                                 B7
O bella ciao, bella ciao, bella ciao ciao ciao
         Am            Em
O partigiano porta mi via
        B7         Em
Che mi sento di morir
 
         Em
E se io muoio da partigiano
                                 B7
O bella ciao, bella ciao, bella ciao ciao ciao
         Am             Em
E se io muoio da partigiano
       B7         Em
Tu mi devi seppellir

Em            
E seppellire lass¨ in montagna
                                 B7
O bella ciao, bella ciao, bella ciao ciao ciao
         Am               Em
E seppellire lass¨ in montagna
        B7               Em
Sotto l'ombra di un bel fior



Bridge:

e|---------------------------------------------------------------|
B|---------------------------------------------------------------|
G|-------0----0---0-2---0--------0------0---4-2---0--------------|
D|---2-4---2----4-----4---2----2---4-0----4-----4---2------------|  X2
A|-2-------------------------2-----------------------------------|
E|---------------------------------------------------------------|

e|---0-0---0----0-0-2-3-0---0-0----------------------------------|
B|-------3----0-----------0-----3-2-3----------------------------|
G|---------------------------------------------------------------|
D|---------------------------------------------------------------|  X2
A|---------------------------------------------------------------|
E|---------------------------------------------------------------|



Em             
E le genti che passeranno
                                 B7
O bella ciao, bella ciao, bella ciao ciao ciao
      Am             Em
E le genti che passeranno
      B7              Em
Mi diranno: "Che bel fior"
 
             Em            
╚ questo il fiore del partigiano
                                 B7
O bella ciao, bella ciao, bella ciao ciao ciao
             Am             Em
╚ questo il fiore del partigiano
       B7          Em
Morto per la libertÓ

C              Em
╚ questo il fiore del partigiano
       D          Em
Morto per la libertÓ



Outro:

e|---7----7------8-7----7-------------------------7---------------------|
B|-----10------------10------------7-10-8-----10----8---7---------------|
G|------------------------9------9--------------------9-----------------|
D|----------------------------------------------------------------------| X2
A|----------------------------------------------------------------------|
E|----------------------------------------------------------------------|

e|---------------------------------------------------------------|
B|---------------------------------------------------------------|
G|-------0----0---0-2---0--------0------0---4-2---0--------------|
D|---2-4---2----4-----4---2----2---4-0----4-----4---2------------|  X2
A|-2-------------------------2-----------------------------------|
E|---------------------------------------------------------------|

e|---0-0---0----0-0-2-3-0---0-0----------------------------------|
B|-------3----0-----------0-----3-2-3----------------------------|
G|---------------------------------------------------------------|
D|---------------------------------------------------------------|  X2
A|---------------------------------------------------------------|
E|---------------------------------------------------------------|

e|---------------------------------------------------------------|
B|---------------------------------------------------------------|
G|-------0----0---0-2---0--------0------0---4-2---0--------------|
D|---2-4---2----4-----4---2----2---4-0----4-----4---2------------|  X2
A|-2-------------------------2-----------------------------------|
E|---------------------------------------------------------------|

e|---0-0---0----0-0-2-3-0---0-0----------------------------------|
B|-------3----0-----------0-----3-2-3----------------------------|
G|---------------------------------------------------------------|
D|---------------------------------------------------------------|  X2
A|---------------------------------------------------------------|
E|---------------------------------------------------------------|


Tablature player for this song:
 
 
Modena City Ramblers - Bella Ciao Tab :: indexed at Ultimate Guitar.
Bella Ciao tabs @ 911Tabs
People who played Modena City Ramblers - Bella Ciao Tab also played these songs by Modena City Ramblers:
Un Giorno Di Pioggia Chords, I 100 Passi Chords, Contessa Chords, Ebano Chords, Ebano Chords, Contessa Tab

Quick tip, so you can enjoy Bella Ciao Tab even more:

You might want to transpose the song if it is too high or too low for you to sing. Just click the desired option while playing a song and all the chords will automatically be transponded into a new key.

Show us your talent, perform Bella Ciao Tab!

Here you can post a video or audio performance. Tell me more ...
Where can we find your performance? Tell me more ...
Your comment:
Please, log in to post your performance.