Artists by letter: A B C D E F G H I J K L M N O P Q R S T U V W X Y Z 0-9
 
Early One Morning Tab
-------------------------------------------------------------------
			     Early One Morning - Traditional
-------------------------------------------------------------------------------
Tabbed by: SuperFingers
Email: jodygirl2008@gmail.com

This is my first tab. I think it is correct. xD
Tuning: Standard

e|--------------------------------------------------------------------------|
B|--------------------------------------------------------------------------|
G|------------------0-----2-------------------------------------------------|
D|---------------2-----2-----3--0--------0----------------------------------|
A|---3--3--3--3--------------------3--2-------------------------------------|
E|------------------------------------------3--3----------------------------|

e|--------------------------------------------------------------------------|
B|--------------------------------------------------------------------------|
G|---------------------0-----2----------------------------------------------|
D|------------------2-----2-----3--0----------------------------------------|
A|---3--3--3--3--3--------------------2--3----------------------------------|
E|--------------------------------------------------------------------------|

e|--------------------------------------------------------------------------|
B|--------------------------------------------------------------------------|
G|------------0-----------------0-------------------------------------------|
D|---0--2--3-----2-----0--2--3-----2----------------------------------------|
A|------------------3-----------------3-------------------------------------|
E|--------------------------------------------------------------------------|

e|--------------------------------------------------------------------------|
B|------------1--0----------------------------------------------------------|
G|---------0--------2--0----------------------------------------------------|
D|------2-----------------3--2--0-------------------------------------------|
A|---3-----------------------------3--2--3----------------------------------|
E|--------------------------------------------------------------------------|

************************************

| /   slide up
| \   slide down
| h   hammer-on
| p   pull-off
| ~   vibrato
| +   harmonic
| x   Mute note
| b   Bend
| pb  Pre-bend
| br  Bend release
| pbr Pre-bend release
| brb Bend release bend

************************************
Tablature player for this song:
 
 
Misc Traditional - Early One Morning Tab :: indexed at Ultimate Guitar.
Early One Morning tabs @ 911Tabs

Quick tip, so you can enjoy Early One Morning Tab even more:

If you don't really know how to deal with "Absus4" chord and his equally confusing brothers, just put the mouse cursor over them and you will be shown a helpful chord diagram.

Show us your talent, perform Early One Morning Tab!

Here you can post a video or audio performance. Tell me more ...
Where can we find your performance? Tell me more ...
Your comment:
Please, log in to post your performance.