Artists by letter: A B C D E F G H I J K L M N O P Q R S T U V W X Y Z 0-9
 
Secrets Tab
Capo on 2nd fret.

If no capo is available, it is simple enough to just play on standard tuning 
2 frets up from what I wrote.

Of course, this is transcribed for a guitar, even though it is played by a 
cello. The first struck note for each chord sounds lower in the song because 
the cellist hits the note on two different octaves. The lowest octave is 
unplayable on the guitar, so I had to leave it out.

Riff 1

C                                 Em
e|----------------|----------------|----------------|----------------|
B|----------------|----------------|----------------|----------------|
G|----0---0-------|----0---0-------|----0---0-------|----0---0-------|
D|--2---2---2---2-|--2---2---2---2-|--2---2---2---2-|--2---2---2---2-|
A|3-----------3---|3-----------3---|2-----------2---|2-----------2---|
E|----------------|----------------|----------------|----------------|

Am                                F
e|----------------|----------------|----------------|----------------|
B|----------------|----------------|----------------|----------------|
G|----2---2-------|----2---2-------|----2---2---2---|----------------|
D|--2---2---2---2-|--2---2---2---2-|------3---3---3-|----3---3---3---|
A|0-----------0---|0-----------0---|--3-------------|--3---3---3---3-|
E|----------------|----------------|1---------------|1---------------|

Riff 2

C                                 Em
e|----------------|----------------|----------------|----------------|
B|----------------|----------------|----------------|----------------|
G|----0---0-------|----0---0-------|----0---0-------|----0---0-------|
D|--2---2---2---2-|--2---2---2---2-|--2---2---2---2-|--2---2---2---2-|
A|3-----------3---|3-----------3---|2-----------2---|2-----------2---|
E|----------------|----------------|----------------|----------------|

Am                                F
e|----------------|----------------|----------------|----------------|
B|----------------|----1---1---1---|----------------|----------------|
G|----------------|------2---------|----------------|----------------|
D|----2---2---2---|--2-------2---2-|----3---3-------|----3---3-------|
A|0-3---3---3---3-|0---------------|--3---3---3---3-|--3---3---3---3-|
E|----------------|----------------|1-----------1---|1-----------1---|

Riff 3

C                                 Em
e|----------------|----------------|----------------|----------------|
B|----------------|----------------|----------------|----------------|
G|----0---0-------|----0---0-------|----0---0-------|----0---0-------|
D|--2---2---2---2-|--2---2---2---2-|--2---2---2---2-|--2---2---2---2-|
A|3-----------3---|3-----------3---|2-----------2---|2-----------2---|
E|----------------|----------------|----------------|----------------|

Am                                F
e|----------------|----------------|----------------|----------------|
B|----1---1-------|----1---1-------|----------------|------------1---|
G|------2---------|------2---------|----------------|----------------|
D|--2-------2---2-|--2-------2---2-|----3---3-------|----3---3-------|
A|0-----------0---|0-----------0---|--3---3---3---3-|--3---3---------|
E|----------------|----------------|1-----------1---|1---------------|

Riff 4

C                                 Em
e|----------------|----------------|----------------|----------------|
B|/5--------------|--------3--p1-1/|3-------------1h|3-------1---3---|
G|----------------|----------------|----------------|----------------|
D|----------------|----------------|----------------|----------------|
A|----------------|----------------|----------------|----------------|
E|----------------|----------------|----------------|----------------|

Am                                F
e|----------------|----------------|----------------|----------------|
B|6-------5-------|3--\1---1---3---|6-------5----3p1|3--p1---1---3---|
G|----------------|----------------|----------------|----------------|
D|----------------|----------------|----------------|----------------|
A|----------------|----------------|----------------|----------------|
E|----------------|----------------|----------------|----------------|

Riff 5

C                                 Em
e|----------------|----------------|----------------|----------------|
B|----------------|----------------|----------------|----------------|
G|----0---0-------|----0---0-------|----0---0-------|----0---0-------|
D|--2---2---2---2-|--2---2---2---2-|--2---2---2---2-|--2---2---2---2-|
A|3-----------3---|3-----------3---|2-----------2---|2-----------2---|
E|----------------|----------------|----------------|----------------|

Am                                F
e|----------------|----------------|----------------|----------------|
B|----------------|-----1h31-------|----------------|----------------|
G|----------------|----------------|----------------|----2---2-------|
D|----2-0-2-------|----2-----0-2---|----3---3-------|------3---3-----|
A|0-3-------3-0-3-|0-3-----------3-|--3---3---3---3-|--3-----------3-|
E|----------------|----------------|1-----------1---|1-----------1---|

Riff 6

C                                 Em
e|----------------|----------------|----------------|----------------|
B|----------------|----------------|----------------|----------------|
G|----0---0-------|----0---0-------|----0---0-------|----0---0-------|
D|--2---2---2---2-|--2---2---2---2-|--2---2---2---2-|--2---2---2---2-|
A|3-----------3---|3-----------3---|2-----------2---|2-----------2---|
E|----------------|----------------|----------------|----------------|

Am                                F
e|----------------|----------------|----------------|----------------|
B|----------------|----------------|----------------|6---5---3---1---|
G|----2---2-------|----2---2-------|----------------|----------------|
D|--2---2---2---2-|--2---2---2---2-|--------2-------|----------------|
A|0-----------0---|0-----------0---|------2---------|----------------|
E|----------------|----------------|1---------------|----------------|

Intro- 1 x Riff 1
Verse 1- 2 x Riff 1
Chorus- 2 x Riff 1
Verse 2- 1 x Riff 2, 1 x Riff 3
Chorus- 2 x Riff 1
Solo- 1 x Riff 4
Verse 3- 1 x Riff 5
Last Chorus- 5 x Riff 1, 1 x Riff 6

______________________________________________________________________

Full song:

C                                 Em
e|----------------|----------------|----------------|----------------|
B|----------------|----------------|----------------|----------------|
G|----0---0-------|----0---0-------|----0---0-------|----0---0-------|
D|--2---2---2---2-|--2---2---2---2-|--2---2---2---2-|--2---2---2---2-|
A|3-----------3---|3-----------3---|2-----------2---|2-----------2---|
E|----------------|----------------|----------------|----------------|

Am                                F
e|----------------|----------------|----------------|----------------|
B|----------------|----------------|----------------|----------------|
G|----2---2-------|----2---2-------|----2---2---2---|----------------|
D|--2---2---2---2-|--2---2---2---2-|------3---3---3-|----3---3---3---|
A|0-----------0---|0-----------0---|--3-------------|--3---3---3---3-|
E|----------------|----------------|1---------------|1---------------|

C                                 Em
e|----------------|----------------|----------------|----------------|
B|----------------|----------------|----------------|----------------|
G|----0---0-------|----0---0-------|----0---0-------|----0---0-------|
D|--2---2---2---2-|--2---2---2---2-|--2---2---2---2-|--2---2---2---2-|
A|3-----------3---|3-----------3---|2-----------2---|2-----------2---|
E|----------------|----------------|----------------|----------------|

Am                                F
e|----------------|----------------|----------------|----------------|
B|----------------|----------------|----------------|----------------|
G|----2---2-------|----2---2-------|----2---2---2---|----------------|
D|--2---2---2---2-|--2---2---2---2-|------3---3---3-|----3---3---3---|
A|0-----------0---|0-----------0---|--3-------------|--3---3---3---3-|
E|----------------|----------------|1---------------|1---------------|

C                                 Em
e|----------------|----------------|----------------|----------------|
B|----------------|----------------|----------------|----------------|
G|----0---0-------|----0---0-------|----0---0-------|----0---0-------|
D|--2---2---2---2-|--2---2---2---2-|--2---2---2---2-|--2---2---2---2-|
A|3-----------3---|3-----------3---|2-----------2---|2-----------2---|
E|----------------|----------------|----------------|----------------|

Am                                F
e|----------------|----------------|----------------|----------------|
B|----------------|----------------|----------------|----------------|
G|----2---2-------|----2---2-------|----2---2---2---|----------------|
D|--2---2---2---2-|--2---2---2---2-|------3---3---3-|----3---3---3---|
A|0-----------0---|0-----------0---|--3-------------|--3---3---3---3-|
E|----------------|----------------|1---------------|1---------------|

C                                 Em
e|----------------|----------------|----------------|----------------|
B|----------------|----------------|----------------|----------------|
G|----0---0-------|----0---0-------|----0---0-------|----0---0-------|
D|--2---2---2---2-|--2---2---2---2-|--2---2---2---2-|--2---2---2---2-|
A|3-----------3---|3-----------3---|2-----------2---|2-----------2---|
E|----------------|----------------|----------------|----------------|

Am                                F
e|----------------|----------------|----------------|----------------|
B|----------------|----------------|----------------|----------------|
G|----2---2-------|----2---2-------|----2---2---2---|----------------|
D|--2---2---2---2-|--2---2---2---2-|------3---3---3-|----3---3---3---|
A|0-----------0---|0-----------0---|--3-------------|--3---3---3---3-|
E|----------------|----------------|1---------------|1---------------|

C                                 Em
e|----------------|----------------|----------------|----------------|
B|----------------|----------------|----------------|----------------|
G|----0---0-------|----0---0-------|----0---0-------|----0---0-------|
D|--2---2---2---2-|--2---2---2---2-|--2---2---2---2-|--2---2---2---2-|
A|3-----------3---|3-----------3---|2-----------2---|2-----------2---|
E|----------------|----------------|----------------|----------------|

Am                                F
e|----------------|----------------|----------------|----------------|
B|----------------|----------------|----------------|----------------|
G|----2---2-------|----2---2-------|----2---2---2---|----------------|
D|--2---2---2---2-|--2---2---2---2-|------3---3---3-|----3---3---3---|
A|0-----------0---|0-----------0---|--3-------------|--3---3---3---3-|
E|----------------|----------------|1---------------|1---------------|

C                                 Em
e|----------------|----------------|----------------|----------------|
B|----------------|----------------|----------------|----------------|
G|----0---0-------|----0---0-------|----0---0-------|----0---0-------|
D|--2---2---2---2-|--2---2---2---2-|--2---2---2---2-|--2---2---2---2-|
A|3-----------3---|3-----------3---|2-----------2---|2-----------2---|
E|----------------|----------------|----------------|----------------|

Am                                F
e|----------------|----------------|----------------|----------------|
B|----------------|----1---1---1---|----------------|----------------|
G|----------------|------2---------|----------------|----------------|
D|----2---2---2---|--2-------2---2-|----3---3-------|----3---3-------|
A|0-3---3---3---3-|0---------------|--3---3---3---3-|--3---3---3---3-|
E|----------------|----------------|1-----------1---|1-----------1---|

C                                 Em
e|----------------|----------------|----------------|----------------|
B|----------------|----------------|----------------|----------------|
G|----0---0-------|----0---0-------|----0---0-------|----0---0-------|
D|--2---2---2---2-|--2---2---2---2-|--2---2---2---2-|--2---2---2---2-|
A|3-----------3---|3-----------3---|2-----------2---|2-----------2---|
E|----------------|----------------|----------------|----------------|

Am                                F
e|----------------|----------------|----------------|----------------|
B|----1---1-------|----1---1-------|----------------|------------1---|
G|------2---------|------2---------|----------------|----------------|
D|--2-------2---2-|--2-------2---2-|----3---3-------|----3---3-------|
A|0-----------0---|0-----------0---|--3---3---3---3-|--3---3---------|
E|----------------|----------------|1-----------1---|1---------------|

C                                 Em
e|----------------|----------------|----------------|----------------|
B|----------------|----------------|----------------|----------------|
G|----0---0-------|----0---0-------|----0---0-------|----0---0-------|
D|--2---2---2---2-|--2---2---2---2-|--2---2---2---2-|--2---2---2---2-|
A|3-----------3---|3-----------3---|2-----------2---|2-----------2---|
E|----------------|----------------|----------------|----------------|

Am                                F
e|----------------|----------------|----------------|----------------|
B|----------------|----------------|----------------|----------------|
G|----2---2-------|----2---2-------|----2---2---2---|----------------|
D|--2---2---2---2-|--2---2---2---2-|------3---3---3-|----3---3---3---|
A|0-----------0---|0-----------0---|--3-------------|--3---3---3---3-|
E|----------------|----------------|1---------------|1---------------|

C                                 Em
e|----------------|----------------|----------------|----------------|
B|----------------|----------------|----------------|----------------|
G|----0---0-------|----0---0-------|----0---0-------|----0---0-------|
D|--2---2---2---2-|--2---2---2---2-|--2---2---2---2-|--2---2---2---2-|
A|3-----------3---|3-----------3---|2-----------2---|2-----------2---|
E|----------------|----------------|----------------|----------------|

Am                                F
e|----------------|----------------|----------------|----------------|
B|----------------|----------------|----------------|----------------|
G|----2---2-------|----2---2-------|----2---2---2---|----------------|
D|--2---2---2---2-|--2---2---2---2-|------3---3---3-|----3---3---3---|
A|0-----------0---|0-----------0---|--3-------------|--3---3---3---3-|
E|----------------|----------------|1---------------|1---------------|

C                                 Em
e|----------------|----------------|----------------|----------------|
B|/5--------------|--------3--p1-1/|3-------------1h|3-------1---3---|
G|----------------|----------------|----------------|----------------|
D|----------------|----------------|----------------|----------------|
A|----------------|----------------|----------------|----------------|
E|----------------|----------------|----------------|----------------|

Am                                F
e|----------------|----------------|----------------|----------------|
B|6-------5-------|3--\1---1---3---|6-------5----3p1|3--p1---1---3---|
G|----------------|----------------|----------------|----------------|
D|----------------|----------------|----------------|----------------|
A|----------------|----------------|----------------|----------------|
E|----------------|----------------|----------------|----------------|

C                                 Em
e|----------------|----------------|----------------|----------------|
B|----------------|----------------|----------------|----------------|
G|----0---0-------|----0---0-------|----0---0-------|----0---0-------|
D|--2---2---2---2-|--2---2---2---2-|--2---2---2---2-|--2---2---2---2-|
A|3-----------3---|3-----------3---|2-----------2---|2-----------2---|
E|----------------|----------------|----------------|----------------|

Am                                F
e|----------------|----------------|----------------|----------------|
B|----------------|-----1h31-------|----------------|----------------|
G|----------------|----------------|----------------|----2---2-------|
D|----2-0-2-------|----2-----0-2---|----3---3-------|------3---3-----|
A|0-3-------3-0-3-|0-3-----------3-|--3---3---3---3-|--3-----------3-|
E|----------------|----------------|1-----------1---|1-----------1---|

C                                 Em
e|----------------|----------------|----------------|----------------|
B|----------------|----------------|----------------|----------------|
G|----0---0-------|----0---0-------|----0---0-------|----0---0-------|
D|--2---2---2---2-|--2---2---2---2-|--2---2---2---2-|--2---2---2---2-|
A|3-----------3---|3-----------3---|2-----------2---|2-----------2---|
E|----------------|----------------|----------------|----------------|

Am                                F
e|----------------|----------------|----------------|----------------|
B|----------------|----------------|----------------|----------------|
G|----2---2-------|----2---2-------|----2---2---2---|----------------|
D|--2---2---2---2-|--2---2---2---2-|------3---3---3-|----3---3---3---|
A|0-----------0---|0-----------0---|--3-------------|--3---3---3---3-|
E|----------------|----------------|1---------------|1---------------|

C                                 Em
e|----------------|----------------|----------------|----------------|
B|----------------|----------------|----------------|----------------|
G|----0---0-------|----0---0-------|----0---0-------|----0---0-------|
D|--2---2---2---2-|--2---2---2---2-|--2---2---2---2-|--2---2---2---2-|
A|3-----------3---|3-----------3---|2-----------2---|2-----------2---|
E|----------------|----------------|----------------|----------------|

Am                                F
e|----------------|----------------|----------------|----------------|
B|----------------|----------------|----------------|----------------|
G|----2---2-------|----2---2-------|----2---2---2---|----------------|
D|--2---2---2---2-|--2---2---2---2-|------3---3---3-|----3---3---3---|
A|0-----------0---|0-----------0---|--3-------------|--3---3---3---3-|
E|----------------|----------------|1---------------|1---------------|

C                                 Em
e|----------------|----------------|----------------|----------------|
B|----------------|----------------|----------------|----------------|
G|----0---0-------|----0---0-------|----0---0-------|----0---0-------|
D|--2---2---2---2-|--2---2---2---2-|--2---2---2---2-|--2---2---2---2-|
A|3-----------3---|3-----------3---|2-----------2---|2-----------2---|
E|----------------|----------------|----------------|----------------|

Am                                F
e|----------------|----------------|----------------|----------------|
B|----------------|----------------|----------------|----------------|
G|----2---2-------|----2---2-------|----2---2---2---|----------------|
D|--2---2---2---2-|--2---2---2---2-|------3---3---3-|----3---3---3---|
A|0-----------0---|0-----------0---|--3-------------|--3---3---3---3-|
E|----------------|----------------|1---------------|1---------------|

C                                 Em
e|----------------|----------------|----------------|----------------|
B|----------------|----------------|----------------|----------------|
G|----0---0-------|----0---0-------|----0---0-------|----0---0-------|
D|--2---2---2---2-|--2---2---2---2-|--2---2---2---2-|--2---2---2---2-|
A|3-----------3---|3-----------3---|2-----------2---|2-----------2---|
E|----------------|----------------|----------------|----------------|

Am                                F
e|----------------|----------------|----------------|----------------|
B|----------------|----------------|----------------|----------------|
G|----2---2-------|----2---2-------|----2---2---2---|----------------|
D|--2---2---2---2-|--2---2---2---2-|------3---3---3-|----3---3---3---|
A|0-----------0---|0-----------0---|--3-------------|--3---3---3---3-|
E|----------------|----------------|1---------------|1---------------|

C                                 Em
e|----------------|----------------|----------------|----------------|
B|----------------|----------------|----------------|----------------|
G|----0---0-------|----0---0-------|----0---0-------|----0---0-------|
D|--2---2---2---2-|--2---2---2---2-|--2---2---2---2-|--2---2---2---2-|
A|3-----------3---|3-----------3---|2-----------2---|2-----------2---|
E|----------------|----------------|----------------|----------------|

Am                                F
e|----------------|----------------|----------------|----------------|
B|----------------|----------------|----------------|----------------|
G|----2---2-------|----2---2-------|----2---2---2---|----------------|
D|--2---2---2---2-|--2---2---2---2-|------3---3---3-|----3---3---3---|
A|0-----------0---|0-----------0---|--3-------------|--3---3---3---3-|
E|----------------|----------------|1---------------|1---------------|

C                                 Em
e|----------------|----------------|----------------|----------------|
B|----------------|----------------|----------------|----------------|
G|----0---0-------|----0---0-------|----0---0-------|----0---0-------|
D|--2---2---2---2-|--2---2---2---2-|--2---2---2---2-|--2---2---2---2-|
A|3-----------3---|3-----------3---|2-----------2---|2-----------2---|
E|----------------|----------------|----------------|----------------|

Am                                F
e|----------------|----------------|----------------|----------------|
B|----------------|----------------|----------------|6---5---3---1---|
G|----2---2-------|----2---2-------|----------------|----------------|
D|--2---2---2---2-|--2---2---2---2-|--------2-------|----------------|
A|0-----------0---|0-----------0---|------2---------|----------------|
E|----------------|----------------|1---------------|----------------|

Email me at BurtaciousD@hotmial.com if you have any corrections/suggestions.
Hope you enjoy it :)

Tablature player for this song:
 
 
Onerepublic - Secrets Tab :: indexed at Ultimate Guitar.
Secrets tabs @ 911Tabs

Quick tip, so you can enjoy Secrets Tab even more:

If you spend just 10 seconds to register, you will be able to comment on all the chords and tabs and rate them. You will as well be able to comment on videos of your fellow guitarists and give them ratings from 1 to 5 ... And - of course - you can share your own videos with them and see what they think of you. :)
Click here to join us!

Show us your talent, perform Secrets Tab!

Here you can post a video or audio performance. Tell me more ...
Where can we find your performance? Tell me more ...
Your comment:
Please, log in to post your performance.