Artists by letter: A B C D E F G H I J K L M N O P Q R S T U V W X Y Z 0-9

When You Cant Sleep At Night Tab (ver 2) - Of Mice And Men


 
When You Cant Sleep At Night Tab
-------------------------------------------------------------------------------
			     WHEN YOU CAN"T SLEEP AT NIGHT - Of Mice & Men
-------------------------------------------------------------------------------
Tabbed by:cdyt7717
Email: cod7ster@gmail.com

Tuning: standard

Intro/Chorus
Guitar 1 acoustic                        \/(can also be a harmonic on the 12th)
e|-----------------------------0----0----------0--------|
B|-3/5---3/5---3-0---0-3-----0-0------0---0------0---0--|
G|-----------------2-----0-2---0------------------------|
D|-----------------------------2--2-----2----2-----2----| 
A|-----------------------------2------------------------|
E|-----------------------------0------------------------|

Verse
Guitar 1
e|-3-----3-----3-----3-----2-----2-----2-----2------|
B|---0-----0-----0-----0-----0-----0-----0-----0----|
G|--------------------------------------------------|
D|-----2-----2-----2-----2-----2-----2-----2-----2--|
A|--------------------------------------------------|
E|--------------------------------------------------|

************************************

| /   slide up
| \   slide down
| h   hammer-on
| p   pull-off
| ~   vibrato
| +   harmonic
| x   Mute note
| b   Bend
| pb  Pre-bend
| br  Bend release
| pbr Pre-bend release
| brb Bend release bend

************************************
 
 
Of Mice And Men - When You Cant Sleep At Night Tab :: indexed at Ultimate Guitar.
When You Cant Sleep At Night tabs @ 911Tabs

Quick tip, so you can enjoy When You Cant Sleep At Night Tab even more:

If you don't really know how to deal with "Absus4" chord and his equally confusing brothers, just put the mouse cursor over them and you will be shown a helpful chord diagram.

Show us your talent, perform When You Cant Sleep At Night Tab!

Here you can post a video or audio performance. Tell me more ...
Where can we find your performance? Tell me more ...
Your comment:
Please, log in to post your performance.