Artists by letter: A B C D E F G H I J K L M N O P Q R S T U V W X Y Z 0-9

 
Rock Lobster Tab
----------------------------------------------------------------------------
			 Rock Lobster- Peter Griffin
----------------------------------------------------------------------------
Tabbed by: Joel Keane (jk41)
Email:

Tuning:standard
Classic family guy
The opens arent 100% accurate, just there to give you an idea

Cleveland, sit down, i want to sing a little song that kept me goin when
i had troubles
e|---------------------11------------------------11----------------------11-|
B|---1------1----------00------1------1----------00----1------1----------00-|
G|---0------0--1---1-0---------0------0--1---1-0-------0------0--1---1-0----|
D|-----0-1-------3---------------0-1-------3-------------0-1-------3--------|
A|-3-----------------------5-3----------------------5-3---------------------|
E|--------------------------------------------------------------------------|
                                                     we were at the beach
e|---------------------11------------------------11-----------------------11-|
B|----1----1-----------00------1------1----------00-----1------1----------00-|
G|----0----0---1---1-0---------0------0--1---1-0--------0------0--1---1-0----|
D|-----0-1-------3---------------0-1-------3--------------0-1-------3--------|
A|5-3----------------------5-3-----------------------5-3---------------------|
E|---------------------------------------------------------------------------|
everybody had matching     somebody went under       and there they saw
towels                     a dock                    a rock
e|---------------------11-----------------------11--------------------------|
B|---1------1----------00-----1------1----------00--------------------------|
G|---0------0--1---1-0--------0------0--1---1-0-------12-00-11-00-12-00-11--|
D|-----0-1-------3--------------0-1-------3--------------00----00----00-----|
A|5-3----------------------5-3------------------------10----9-----10----9---|
E|--------------------------------------------------------------------------|
but it wasnt a rock        it was a rock lobster

e|--------------------------------------------------------------------------|
B|---------------------00000------------------------------------------------|
G|-00-8-8--11-9-11-12--00000----------12-00-11-00-12-00-11-00-8-8--11-9-11--|
D|-00------------------00000-------------00----00----00----00---------------|
A|----6-6--9--7-9--10-----------------10----9-----10----9-----6-6--9--7-9---|
E|--------------------------------------------------------------------------|
                           Rock lobster
e|--------------------------------------------------------------------------|
B|-----00000------------------------------------------------------00000-----|
G|-12--00000-------------12-00-11-00-12-00-11-00-8-8--11-9-11-12--00000-----|
D|-----00000----------------00----00----00----00------------------00000-----|
A|-10--------------------10----9-----10----9-----6-6--9--7-9--10------------|
E|--------------------------------------------------------------------------|
            Rock lobster                                               ROCK
e|--------------------------------------------------------------------------|
B|--------------------------------------------------------------------------|
G|-----12-00-11-00-12-00-11-00-8-8--11-9-11-12------------------------------|
D|--------00----00----00----00----------------------------------------------|
A|-----10----9-----10----9-----6-6--9--7-9--10------------------------------|
E|--------------------------------------------------------------------------|
LOBSTER                                    hehehehehe,yeah youre gunna be ok

After listening to this more carefully i reckon theres 2 guitars(1x12
string)and the above will get away with it but for 2, one picks the single
 notes while the other strums the bottom of the chords
As for the 2nd bit
gtr 1
e|---------------------------------------------------------------------------|
B|-8----------7-----------8-----------7--------4---4--7---5---7--8-----------|
G|---------------------------------------------------------------------------|
D|-5----------4-----------5-----------4--------1---1--4---2---4--5-----------|
A|---------------------------------------------------------------------------|
E|---------------------------------------------------------------------------|
gtr 2
e|----1--1-----------1-------1--1-----------1-----------------------1-1-1-1-|
B|----0--0-----------0-------0--0-----------0-----------------------0-0-0-0-|
G|----0--0-----------0-------0--0-----------0-----------------------0-0-0-0-|
D|----0--0--------0----------0--0--------0------------------------0---0-0-0-|
A|----2--2--------2----------2--2--------2------------------------2---2-2-2-|
E|----3--3--------3----------3--3--------3------------------------3---3-3-3-|

************************************

| /   slide up
| \   slide down
| h   hammer-on
| p   pull-off
| ~   vibrato
| +   harmonic
| x   Mute note
| b   Bend
| pb  Pre-bend
| br  Bend release
| pbr Pre-bend release
| brb Bend release bend

************************************
 
 
Peter Griffen - Rock Lobster Tab :: indexed at Ultimate Guitar.
Rock Lobster tabs @ 911Tabs
People who played Peter Griffen - Rock Lobster Tab also played these songs by Peter Griffen:
Iraq Lobster Tab, Cowboy Butt Sex Chords, Rock Lobster Tab, Rock Lobster Tab, Rock Lobster Tab, Ding Fries Are Done Tab

Quick tip, so you can enjoy Rock Lobster Tab even more:

You might want to transpose the song if it is too high or too low for you to sing. Just click the desired option while playing a song and all the chords will automatically be transponded into a new key.

Show us your talent, perform Rock Lobster Tab!

Here you can post a video or audio performance. Tell me more ...
Where can we find your performance? Tell me more ...
Your comment:
Please, log in to post your performance.