Artists by letter: A B C D E F G H I J K L M N O P Q R S T U V W X Y Z 0-9
 
Oops I Did It Again Tab
-------------------------------------------------------------------------------
               OOPS...I DID IT AGAIN - Kina Grannis
-------------------------------------------------------------------------------

Check out her cover! http://www.youtube.com/watch?v=Iwh3f1vs0Yg

This is how she plays it!

Tuning: Down 1/2 Step

Chords Used:
C#m     x46654
G#      466544
A       577655
B       x24400
E       022100

x = palm mute
* = upwards strum 
# = downwards strum

Intro:
e|-----x-------x-------x-----x-------x-------x-------x-----x-|
B|---5-x-----4-x-----5-x-5---x-----5-x-----4-x-----5-x-5---x-|
G|---6-x-----5-x-----6-x---6-x-----6-x-----5-x-----6-x---6-x-|
D|---6-x-----6-x-----6-x-----x-----6-x-----6-x-----6-x-----x-|
A|-4---x-------x-0-4---x-4---x-0-4---x-------x-0-4---x-4---x-|
E|-----x-0-4---x-------x-----x-------x-0-4---x-------x-----x-|



Verse 1:
e|------x-------x-----x-------x-------x------x-------------x-|
B|---5--x-----4-x-5---x-----5-x-----5-x-5----x---------4---x-|
G|---6--x-----5-x---6-x-----6-x-----6-x---6--x-------5---5-x-|
D|---6--x-----6-x-----x-----6-x-----7-x------x-----6-------x-|
A|-0-4--x-------x-4---x-0-4---x-------x------x-------------x-|
E|------x-0-4---x-----x-------x-0-5---x-5----x-0-4---------x-|
I think I did it again, I made you believe we're more than just friends.

e|------x-------x-----x-------x-------x------x-------------x-|
B|---5--x-----4-x-5---x-----5-x-----5-x-5----x---------4---x-|
G|---6--x-----5-x---6-x-----6-x-----6-x---6--x-------5---5-x-|
D|---6--x-----6-x-----x-----6-x-----7-x------x-----6-------x-|
A|-4----x-------x-4---x-0-4---x-------x------x-------------x-|
E|------x-0-4---x-----x-------x-0-5---x-5----x-0-4---------x-|
It might seem like a crush, but that doesnt mean that I'm serious.



Pre-Chorus:                                          *
e|-------x------x-------x-----x-------x-----x------x-4-x-|
B|-----5-x-5----x-----4-x-4---x-----5-x-5---x------x-4-x-|
G|-----6-x---6--x-----5-x---5-x-----6-x---6-x------x-5-x-|
D|-----7-x------x-----6-x-----x-----7-x-----x------x-6-x-|
A|-------x------x-------x-----x-------x-----x------x-6-x-|
E|-0-5---x-5----x-0-4---x-4---x-0-5---x-5---x-0-4--x-4-x-|
But to lose all my senses, is just so typically me.



Chorus:                                            #
e|-----x-------x-----x-------x-----x-------x-----x-4-4--|
B|---5-x-----4-x-5---x-------x-----x-------x-----x-4-4--|
G|---6-x-----5-x---6-x-----4-x-1---x-----4-x-1---x-5-5--|
D|---6-x-----6-x-----x-----4-x---2-x-----4-x---2-x-6-6--|
A|-4---x-------x-4---x-0-2---x-----x-0-2---x-----x-6-6--|
E|-----x-0-4---x-----x-------x-0---x-------x-0---x-4-6--|
Oops, I did it again. I played with your heart, got lost in the game. Oh baby!
                                             #
e|-----x-------x-----x-------x-----x-------x-4-4--|
B|---5-x-----4-x-5---x-------x-----x-------x-4-4--|
G|---6-x-----5-x---6-x-----4-x-1---x-----1-x-5-5--|
D|---6-x-----6-x-----x-----4-x---2-x-----2-x-6-6--|
A|-4---x-------x-4---x-0-2---x-----x-------x-6-6--|
E|-----x-0-4---x-----x-------x-0---x-0-0---x-4-6--|
Oops, you think I'm in love, I'm sent from above. Im not that innocent.



Break:
e|-----x-------x-------x-----x-------x-------x-------x-----x-|
B|---5-x-----4-x-----5-x-5---x-----5-x-----4-x-----5-x-5---x-|
G|---6-x-----5-x-----6-x---6-x-----6-x-----5-x-----6-x---6-x-|
D|---6-x-----6-x-----6-x-----x-----6-x-----6-x-----6-x-----x-|
A|-4---x-------x-0-4---x-4---x-0-4---x-------x-0-4---x-4---x-|
E|-----x-0-4---x-------x-----x-------x-0-4---x-------x-----x-|



Verse 2:
e|------x-------x-----x-------x-------x------x-------x-----x-|
B|---5--x-----4-x-5---x-----5-x-----5-x-5----x-----4-x-4---x-|
G|---6--x-----5-x---6-x-----6-x-----6-x---6--x-----5-x---5-x-|
D|---6--x-----6-x-----x-----6-x-----7-x------x-----6-x-----x-|
A|-0-4--x-------x-4---x-0-4---x-------x------x-------x-----x-|
E|------x-0-4---x-----x-------x-0-5---x-5----x-0-4---x-4---x-|
You see my problem is this, I'm dreaming away, wishing that heros they truly exist.

e|-------x-------x-----x--------x-------x-----x--------------x-|
B|-----5-x-------x-----x--------x-----5-x-5---x---------4----x-|
G|-----6-x-----4-x-1---x------1-x-----6-x---6-x-------5---5--x-|
D|-----6-x-----4-x---2-x------2-x-----7-x-----x-----6--------x-|
A|-0-4---x-0-2---x-----x--------x-------x-----x--------------x-|
E|-------x-------x-0---x-0-0----x-0-5---x-5---x-0-4----------x-|
I cry watching the day, you see I'm a fool in so many ways



Pre-Chorus:                                          *
e|-------x------x-------x-----x-------x-----x------x-4-x-|
B|-----5-x-5----x-----4-x-4---x-----5-x-5---x------x-4-x-|
G|-----6-x---6--x-----5-x---5-x-----6-x---6-x------x-5-x-|
D|-----7-x------x-----6-x-----x-----7-x-----x------x-6-x-|
A|-------x------x-------x-----x-------x-----x------x-6-x-|
E|-0-5---x-5----x-0-4---x-4---x-0-5---x-5---x-0-4--x-4-x-|
But to lose all my senses, is just so typically me.



Chorus:                                            #
e|-----x-------x-----x-------x-----x-------x-----x-4-4--|
B|---5-x-----4-x-5---x-------x-----x-------x-----x-4-4--|
G|---6-x-----5-x---6-x-----4-x-1---x-----4-x-1---x-5-5--|
D|---6-x-----6-x-----x-----4-x---2-x-----4-x---2-x-6-6--|
A|-4---x-------x-4---x-0-2---x-----x-0-2---x-----x-6-6--|
E|-----x-0-4---x-----x-------x-0---x-------x-0---x-4-6--|
Oops, I did it again. I played with your heart, got lost in the game. Oh baby!

#
e|-----x-------x-----x-------x-----x-------x-4-4--|
B|---5-x-----4-x-5---x-------x-----x-------x-4-4--|
G|---6-x-----5-x---6-x-----4-x-1---x-----1-x-5-5--|
D|---6-x-----6-x-----x-----4-x---2-x-----2-x-6-6--|
A|-4---x-------x-4---x-0-2---x-----x-------x-6-6--|
E|-----x-0-4---x-----x-------x-0---x-0-0---x-4-6--|
Oops, you think I'm in love, I'm sent from above. Im not that...

#
e|-----x-------x-----x-------x-----x-------x-----x-4-4--|
B|---5-x-----4-x-5---x-------x-----x-------x-----x-4-4--|
G|---6-x-----5-x---6-x-----4-x-1---x-----4-x-1---x-5-5--|
D|---6-x-----6-x-----x-----4-x---2-x-----4-x---2-x-6-6--|
A|-4---x-------x-4---x-0-2---x-----x-0-2---x-----x-6-6--|
E|-----x-0-4---x-----x-------x-0---x-------x-0---x-4-6--|
Oops, I did it again. I played with your heart, got lost in the game. Oh baby!

#
e|-----x-------x-----x-------x-----x-------x-4-4--|
B|---5-x-----4-x-5---x-------x-----x-------x-4-4--|
G|---6-x-----5-x---6-x-----4-x-1---x-----1-x-5-5--|
D|---6-x-----6-x-----x-----4-x---2-x-----2-x-6-6--|
A|-4---x-------x-4---x-0-2---x-----x-------x-6-6--|
E|-----x-0-4---x-----x-------x-0---x-0-0---x-4-6--|
Oops, you think I'm in love, I'm sent from above. Im not that innocent.



Outro:
e|-----x-------x-------x-----x-----x-------x-------x-----x-|
B|---5-x-----4-x-----5-x-4---x---5-x-----4-x-----5-x-4---x-|
G|---6-x-----5-x-----6-x---5-x---6-x-----5-x-----6-x---5-x-|
D|---6-x-----6-x-----6-x-----x---6-x-----6-x-----7-x-----x-|
A|-4---x-------x-0-4---x-----x-----x-------x-------x-----x-|
E|-----x-0-4---x-------x-4---x-5---x-0-4---x-0-5---x-4---x-|

e|-----x-------x-------x-----x-----x-------x-------x-----x-|
B|---5-x-----4-x-----5-x-4---x---5-x-----4-x-----5-x-4---x-|
G|---6-x-----5-x-----6-x---5-x---6-x-----5-x-----6-x---5-x-|
D|---6-x-----6-x-----6-x-----x---6-x-----6-x-----7-x-----x-|
A|-4---x-------x-0-4---x-----x-----x-------x-------x-----x-|
E|-----x-0-4---x-------x-4---x-5---x-0-4---x-0-5---x-4---x-|

#
e|-4-|
B|-5-|
G|-6-|
D|-6-|
A|-4-|
E|---|


Tablature player for this song:
 
 
Kina Grannis - Oops I Did It Again Tab :: indexed at Ultimate Guitar.
Oops I Did It Again tabs @ 911Tabs

About the artist behind Oops I Did It Again Tab:

Kina Grannis (born August 4, 1985) is an American guitarist and singer-songwriter of half-Japanese, English, French, Welsh, and Irish descent. Kina graduated in 2007 from the University of Southern California with a degree in Social Sciences with a concentration in Psychology.

Kina was the winner of the Doritos Crash The Super Bowl contest.[1] Her progress in the competition was recently covered in the Orange County Register[2] and the Wall Street Journal.[3]

Kina's music can also be heard in the upcoming feature film Glass City slated for release spring 2008.

Indexed at Wikipedia.

Show us your talent, perform Oops I Did It Again Tab!

Here you can post a video or audio performance. Tell me more ...
Where can we find your performance? Tell me more ...
Your comment:
Please, log in to post your performance.