Artists by letter: A B C D E F G H I J K L M N O P Q R S T U V W X Y Z 0-9
 
Stars And Stripes Forever Tab
Standard tuning
Listen to the song to know the repeats

e|--------------------------------------------------|
B|----------------7-8-9-10-11-11-8-8-8-8-8-8-9-9----|
G|--8-7-8----8-10-----------------------------------|
D|--------10----------------------------------------|
A|--------------------------------------------------|
E|--------------------------------------------------|

e|--------------------------------------------------|
B|----------8---------------11-11-11-11-11-11-12-12-|
G|--10-9-10---10-8-7----7---------------------------|
D|-------------------10---8-------------------------|
A|--------------------------------------------------|
E|--------------------------------------------------|

e|--------------------------------11----------------|
B|--13-12-13-16-15-13-12-12-11-11----13-11----11----|
G|------------------------------------------14--12--|
D|--------------------------------------------------|
A|--------------------------------------------------|
E|--------------------------------------------------|

e|-----------------------------------------11-------|
B|-----------------------------------11-11----13-11-|
G|--------------------------------------------------|
D|-15---------------15------------------------------|
A|---13p12h13p12h13---13p12h13p12h13----------------|
E|--------------------------------------------------|

e|--------------------------------------------------|
B|----11-------------------------------13-----------|
G|--14--12--------------------15-13-12----15--------|
D|--------15---------------------------------12-----|
A|-----------10p8h10p8h10-11--------------------15--|
E|--------------------------------------------------|

e|--------------------------13----------------------|
B|--------------------13-16---16----------------13--|
G|-----13-12----12-13------------12-----15-13-12----|
D|-----------15---------------------15--------------|
A|--13----------------------------------------------|
E|--------------------------------------------------|

e|------------------------------13------------------|
B|---------------------------13----16---------------|
G|--15--------13-12----12-13----------12-15----12---|
D|----12------------15----------------------13---15-|
A|------15-13---------------------------------------|
E|--------------------------------------------------|

e|--------------------------------------------------|
B|------16-16-14p13-13----13-13----13-13----13-16-13|
G|---------------------16-------16-------16---------|
D|--13----------------------------------------------|
A|--------------------------------------------------|
E|--------------------------------------------------|

e|--------------------------------------------------|
B|--16-14--------------------------14-13----13-16---|
G|--------15--15-15-14h15-15-14h15-------15---------|
D|--------------------------------------------------|
A|--------------------------------------------------|
E|--------------------------------------------------|

e|--13-13-------------------------------------------|
B|-----------16-16-14p13-13----13-13----13-13----13-|
G|--------15----------------16-------16-------16----|
D|--------------------------------------------------|
A|--------------------------------------------------|
E|--------------------------------------------------|

e|--------------------------------------------------|
B|-14p13-------------------------15-----------------|
G|-------15-12-15-13-13-13-12h13----15p13-13-13-15--|
D|--------------------------------------------------|
A|--------------------------------------------------|
E|--------------------------------------------------|

e|--------------------------------------------------|
B|-13-16-------13-16-------13-----------------------|
G|-------13-15----------------15-13-----13-13-13-13-|
D|-------------------13-15--------------------------|
A|--------------------------------------------------|
E|--------------------------------------------------|

e|------------------------------13-12----13-15-12---|
B|--------------------------------------------------|
G|-13p12-12-12-12\10-10-10-10-9------10-9-----------|
D|--------------------------------------------------|
A|--------------------------------------------------|
E|--------------------------------------------------|

e|------------------------------------------16-15---|
B|--------------------------------------------------|
G|-17-17-17-17-17p15-15-15-15\13-13-13-13-12--------|
D|--------------------------------------------------|
A|--------------------------------------------------|
E|--------------------------------------------------|

e|-------16-18-15----------12-12-12-12-12-----------|
B|-----------------------14--------------16-15-14-13|
G|-13-12------------12-15---------------------------|
D|----------------13--------------------------------|
A|--------------------------------------------------|
E|--------------------------------------------------|

e|------------------------14-14-14-14-14------------|
B|-12-------------------16-------------18-17-16-15--|
G|---15-14-13-11---14-17----------------------------|
D|---------------15---------------------------------|
A|--------------------------------------------------|
E|--------------------------------------------------|

e|----------------------15-18-18-18-18--------------|
B|-14-----------------16---------------16-16-----16-|
G|---17-16-15-14----15-------------------------15---|
D|----------------17-------------------------17-----|
A|--------------------------------------------------|
E|--------------------------------------------------|

e|15-18-18-18-18------------15-18-18p17-17p16-16p15-|
B|------------- 16-16-----16------------------------|
G|---------------------15---------------------------|
D|-------------------17-----------------------------|
A|--------------------------------------------------|
E|--------------------------------------------------|

e|15------------------------------------------------|
B|--19-19p18-18-17-16-18-16-------------------------|
G|--------------------------------------------------|
D|--------------------------------------------------|
A|--------------------------------------------------|
E|--------------------------------------------------|

ENDING CHORD
e|--------------------------------------------------|
B|--13----------------------------------------------|
G|--13----------------------------------------------|
D|--13----------------------------------------------|
A|--11----------------------------------------------|
E|--11----------------------------------------------|
Tablature player for this song:
 
 
John Philip Sousa - Stars And Stripes Forever Tab :: indexed at Ultimate Guitar.
Stars And Stripes Forever tabs @ 911Tabs
People who played John Philip Sousa - Stars And Stripes Forever Tab also played these songs by John Philip Sousa:
The Army Goes Rolling Along Chords, Stars And Stripes Forever Tab

Quick tip, so you can enjoy Stars And Stripes Forever Tab even more:

If you don't really know how to deal with "Absus4" chord and his equally confusing brothers, just put the mouse cursor over them and you will be shown a helpful chord diagram.

Show us your talent, perform Stars And Stripes Forever Tab!

Here you can post a video or audio performance. Tell me more ...
Where can we find your performance? Tell me more ...
Your comment:
Please, log in to post your performance.