Artists by letter: A B C D E F G H I J K L M N O P Q R S T U V W X Y Z 0-9

 
Above Me Tab
Above me - Rufio
tabber - shonofear



Intro  
 Gtr 1 (x2 by self)
-|------------------------------------------------------------------------x4-|
-|---------------------------------------------------------------------------|
-|----10----9---10----10----9---10------10----12----10----10----10----9----9-|
-|-77----77---7----88----88---8----1212----12----12----10----10----10---10---|
-|---------------------------------------------------------------------------|
-|-**----**---*----**----**---*-----*-*-----*-----*-----*-----*-----*----*---|

Gtr 2 
-|-----------------x2-|
-|--------------------|
-|-----------7----5---|
-|-7----8----7-8--5-8-|
-|-7-8--8-8--5----3---|
-|-5----6-------------|

Intro 2
 Gtr 1
-|------------------------------------------------------------------------x2-|
-|---------------------------------------------------------------------------|
-|----10----9---10----10----9---10------10----12----10----10----10----9----9-|
-|-77----77---7----88----88---8----1212----12----12----10----10----10---10---|
-|---------------------------------------------------------------------------|
-|-**----**---*----**----**---*-----*-*-----*-----*-----*-----*-----*----*---|

Gtr 2
-|------------------------------------------------------------------x2-|
-|---------------------------------------------------------------------|
-|---------------------------------------------------------------------|
-|-------------------------------------------------------------10---10-|
-|----8----7---8----8----7---8------12----10----12---12---12-----------|
-|-55---55---5---66---66---6---1010----10----10----8----8----8----8----|
   **   **   *   **   **   *    * *     *     *    *    *    *    *

Pre verse
 Gtr 1  
-|--------------------------------|
-|--------------------------------|
-|--------------------------------|
-|-8------------------------------|
-|-8-12---10/12-10-8-10-8-7-8-7---|
-|-6----------------------------8-|

Gtr 2
-|----------------------------------------------|
-|----------------------------------------------|
-|-1010101010-121212-14-------------------------|
-|-----------------------8/10-8-7-8-7----7------|
-|--8-8-8-8-8-101010-12---------------10---10-8-|
-|----------------------------------------------|

Verse 
 Gtr 1    
-|---------------------------------------x2-|
-|------------------------------------------|
-|-7----------------------------------------|
-|-7-12--8---------7-10-7-----7-10-7--10----|
-|-5-----8-12---88---------88---------10-12-|
-|-------6------**---------**----------8----|

Gtr 2
-|-----------------------------------------------------x2-|
-|--------------------------------------------------------|
-|14----1010-9-10---1414-15-14--10\----999-10-121212-10-9-|
-|--12----------------------------------------------------|
-|12-----8-8-7--8--/1212-13-12---8\----777--8-101010--8-7-|
-|--------------------------------------------------------|
                                    
Pre Chorus 1
 Gtr 1   
-|--------------------------------|
-|--------------------------------|
-|-10-9-10-10-12-10-9--15----14---|
-|------------------------6-----6-|
-|--8-7--8--8/10--8-7--13----12---|
-|--------------------------------|

Gtr 2
-|-----------------------------------------|
-|-----------------------------------------|
-|---------------101010101010-101010101010-|
-|-7-5-7-7/8-7-5--8-8-8-8-8-8--7-7-7-7-7-7-|
-|-----------------------------------------|
-|-----------------------------------------|

Gtr 1
-|----------------------------------|
-|----------------------------------|
-|-15-14-15--17-15-13--101010-9-5---|
-|--------------------------------6-|
-|-13-12-13-/15-13-12---8-8-8-7-3---|
-|----------------------------------|

Gtr 2
-|-------------------------------------------------|
-|-10h11p10----10--10h11p10------------------------|
-|----------10--------------10--101010-12-999-10-9-|
-|-------------------------------------------------|
-|-------------------------------8-8-8-10-777--8-7-|
-|-------------------------------------------------|

Pre Chorus 2
 Gtr 1
-|-----------------------------------------x2-|
-|--------------------------------------------|
-|-------------------------------101010-9-5---|
-|------------------------------------------6-|
-|-8----8----8----8----8----8-----8-8-8-7-3---|
-|---55---55---5----66---66---6---------------|
     **   **   *    **   **   *
  
 Gtr 2
-|-----------------------------------------------------x2-|
-|--------------------------------------------------------|
-|-10----10----10----10----10----10----101010-12-999-10-9-|
-|----77----77----7-----88----88----8---------------------|
-|--------------------------------------8-8-8-10-777--8-7-|
-|----**----**----*-----**----**----*---------------------|
                                            
Chorus     
 Gtr 1
-|----------------------x2-|------------|
-|-------------------------|------------|
-|--------------7----------|------------|
-|-8-----10-----7-12--7-12-|-8-----10---|
-|-8-12--10-12--5-----7----|-8-12--10-6-|
-|-6------8-----------5----|-6------8---|

Gtr 2
-|---------------------------------------|-----------------------------|
-|-/10----10-11-10-----10----10-13-11-10-|-10----10-11-10-----10----10-|
-|-----10----------10-----10-------------|----10----------10-----10----|
-|---------------------------------------|-----------------------------|
-|---------------------------------------|-----------------------------|
-|------------------------------------x4-|-----------------------------|
                                              
Intro 2

Bridge
 Gtr 1  
-|------------------------------------------|------------------------------------|
-|------------------------------------------|------------------------------------|
-|-3----7---------1010-99--3-----5----77-99-|-3----7---------1010-99--3-----5----|
-|-3-6--7-6--7-------------3-12--5-8--------|-3-6--7-6--7-------------3-12--5-12-|
-|-1----5----7-6---8-8-77--1-----3----55-77-|-1----5----7-6---8-8-77--1-----3----|
-|-----------5------------------------------|-----------5------------------------|

Gtr 2
-|-------------------------------------------------|
-|-10-8----13-11-10--10-8--------------------------|
-|------10-10-10-10-------10--1010-1212--10----9---|
-|-----------------------------------------12---12-|
-|-----------------------------8-8-1010---8----7---|
-|-------------------------------------------------|

-|------------------------------------------------------------------|
-|-10-8----13-11-10--10-8-------------------------------------------|
-|------10-10-10-10-------10--1010-1212--10----10----10----10----10-|
-|-----------------------------------------12-----10----10----10----|
-|-----------------------------8-8-1010---8--------*-----*-----*----|
-|------------------------------------------------------------------|

Verse
Pre Chorus
Chorus
Intro 2

Outro
 Gtr 1  
-|------------------------------------------x2-|
-|---------------------------------------------|
-|-1010----1010----1010101010--9-9-9-9h10p9----|
-|--7-7-----8-8----1212121212-101010--------10-|
-|---------------------------------------------|
-|---------------------------------------------|

-|----------------------------------------------------x2-|--------|
-|-------------------------------------------------------|--------|
-|-1010101010-101010101010--1010101010---9-9-9-9h10p9----|--------|
-|--7-7-7-7-7--8-8-8-8-8-8--1212121212--101010--------10-|-3----3-|
-|-------------------------------------------------------|-3-r--3-|
-|-------------------------------------------------------|-1----1-|

Gtr 2
-|---------------------x2-|
-|------------------------|
-|-----------7777-55------|
-|-77---88---7777-55-1010-|
-|-77---88---5555-33--8-8-|
-|-55---66----------------|

-|--------------------------------|--------------------------------------|
-|--------------------------------|--------------------------------------|
-|-------------------7777-77------|-----------------777777-----10----10--|
-|-77---7--888---88--7777-77-1010-|-77---7--888-88--777777-10-----r------|
-|-77-x-7--888-x-88--5555-55--8-8-|-77-x-7--888-88--555555--8---8-----8\-|
-|-55-x-5--666-x-66---------------|-55-x-5--666-66-----------------------|
 
 
Rufio - Above Me Tab :: indexed at Ultimate Guitar.
Above Me tabs @ 911Tabs

About the artist behind Above Me Tab:

Rufio is a pop punk band based in Rancho Cucamonga, California.

Indexed at Wikipedia.

Show us your talent, perform Above Me Tab!

Here you can post a video or audio performance. Tell me more ...
Where can we find your performance? Tell me more ...
Your comment:
Please, log in to post your performance.